Oops, an error
Loading. Please wait.

La Iglesia De María Chords

5 views 1 this week
no commentswrite comment
1 2 3 4 5
3 more votes to show rating
add to favorites
launch autoscroll
font size
0
reset
transpose
0
reset
display chords
guitar tuner
×
Best way to learn
"La Iglesia De María"
Autoscroll
slow
fast
+/-
esc
set tempo
stop
(intro)   
   D    A    D    G    D    A    D     G
E------------------------------------------
B------------------------------------------
G--7-7--6-6--7-7--4-4--7-7--6-6--7-7--12-12
D--7-7--7-7--7-7--5-5--7-7--7-7--7-7--10-10
A--5-5--7-7--5-5--5-5--5-5--7-7--5-5--10-10
E------------------------------------------

D                 A
vamos niños yo te invito 
                  D
a la iglesia este domingo 
                  G
a la iglesia de maria
D                 A
lleva tu abrigo de piel
                  D
tus joyas tus collares
                  G
todos van a ir a lucirse 
                      D
asi ke Haslo tu tambien
            A
y recuerda decir amen 
D             G
a todo lo ke diga el cura
D                 A
y ke nunca se te ocurra 
                  D
compadecer a los pobres
                  G
kieren pan ke trabajen 
                          D                
eso es lo ke dise el padre

(intrelude)
E------------------------------------------
B------------------------------------------
G--7-7--6-6--7-7--4-4--7-7--6-6--7-7--12-12
D--7-7--7-7--7-7--5-5--7-7--7-7--7-7--10-10
A--5-5--7-7--5-5--5-5--5-5--7-7--5-5--10-10
E------------------------------------------

D               A     
sera tan entretenido 
                    D            
poner cara de cristiano 
                    G
y cambiar todos tus pecados
                        D
por un par de avemarias
                  A
olvida la sinceridad 
                  D
importa mas ke repitas 
                      G
los deseos de amor y paz

(riff 2)
E-----------------------------------
B-----------------------------------
G--10--5-6--------------------------
D--10--5-6------3-----3-----5-----3-
A--8---3-4-3/4/5-3/4/5-3/4/5-3/4/5--
E-----------------------------------
!vamos a la iglecia de los ricos
riff 2
!vamos a la iglecia de los cuicos
riff 2
!vamos a la iglecia de maria
riff 2
!vamos al templo de la ipocresia

*intrelude

D                   A
las monedas ke te sobren
            D               G
las regalaras de todo corazón

!a los pobres
D                   A
la basura ke te estorbe
            D                G
la compartiras de todo corazón

!con los pobres

D            A
o ke caritatrivos somos
D                   G
o ke buenos cristianos somos
D                A
o ke buenos hermanos somos
D                    G
o ke buenos !hijos de maria somos

*riff 2 x3

(outro)
E-----------------------------------
B-----------------------------------
G--10--5-6--------------------------
D--10--5-6------3-----3-----3-----3-
A--8---3-4-3/4/5-3/4/5-3/4/5-3/4/5--
E-----------------------------------

-------------------------------------------------------------
* SER JOVEN Y NO SER REVOLUCIONARIO ES UNA CONTRADICCION *
------------------------------------------------------------
cHE GUEVARA
Suggest correction
Give kudos to tab author, rate the tab!
1 2 3 4 5
comments
print report bad tab
guest
You may want to rate the tab now too:
select rating
Wanna post a correction for this tab? Suggest correction