Oops, an error
Loading. Please wait.

María Tab

11 views 1 this week
no commentswrite comment
1 2 3 4 5
3 more votes to show rating
add to favorites
launch autoscroll
font size
0
reset
how to read this tab
guitar tuner
Autoscroll
slow
fast
+/-
esc
set tempo
stop
Help us to improve Ultimate-Guitar.com Take our survey!
×
Intro :
|------------------------|
|------------------------|
|-------5-10--7----------|
|-----7-5-10--7----------| X 2
|-----7-3-8---5----------|
|-----5------------------|

Versos :
|-----------------------|      |----------------------|
|-----------------------|      |----------------------|
|-------5----7----------|o asi:|-------5-10-7---------|
|-----7-5-3--7----------|      |-----7-5-10-7---------|    
|-----7-3-3--5----------|      |-----7-3-8--5---------|
|-----5---1-------------|      |-----5----------------|      
 Maria siempre iba ?..

|-------------------------------------------------| 
|-------------------------------------------------| 
|-------------------------------------------------| 
|--x-x-7-x-x-7-x-x-7-x-x-7-x-x-5-x-x-5-x-x-5-x-x-5| 
|--x-x-7-x-x-7-x-x-7-x-x-7-x-x-5-x-x-5-x-x-5-x-x-5| 
|--x-x-5-x-x-5-x-x-5-x-x-5-x-x-3-x-x-3-x-x-3-x-x-3| 
    robaron su inocencia ?

|-------------------------------------|
|-------------------------------------|
|-x-x-7-x-x-7-x-x-7-x-x-7-10-10-10-10-|
|-x-x-7-x-x-7-x-x-7-x-x-7-10-10-10-10-|
|-x-x-5-x-x-5-x-x-5-x-x-5-8---8-8? 8--|
|-x-x---------------------------------|
Suggest correction
Give kudos to tab author, rate the tab!
1 2 3 4 5
comments
print report bad tab
guest
You may want to rate the tab now too:
select rating
Wanna post a correction for this tab? Suggest correction