Oops, an error
Loading. Please wait.

Pásame La Escoba Tab

4 views 1 this week
no commentswrite comment
1 2 3 4 5
3 more votes to show rating
add to favorites
launch autoscroll
font size
0
reset
how to read this tab
guitar tuner
×
Best way to learn
"Pásame La Escoba"
Autoscroll
slow
fast
+/-
esc
set tempo
stop
riff 1:
----------------------------------------------------------------
----------------------------------------------------------------
----------------------------------------------------------------
-------------------------------------------5-4------------------
-7---7-7-7-4-2---7---7-7-7-4-2---7---7-7-7-3-2---7---7-7-7-4-2--
-5---5-5-5-2-0---5---5-5-5-2-0---5---5-5-5-------5---5-5-5-2-0--

       [ch]A[/ch]             [ch]G[/ch]
quiero hacer el amor, en tu auto nena
       [ch]A[/ch]           [ch]G[/ch]
quiero hacer el amor en la heladera
       [ch]A[/ch]                 [ch]G[/ch]
quiero hacer el amor mirando television
       [ch]A[/ch]            [ch]G[/ch]
quiero hacer el amor en 2,20 volts


riff 1
llevame a la alcoba, pasame la escoba
tocame con ganas, haz crujir la cama
pegame con fuerza, haz que me retuerza
matame si quieres, dime que te mueres


         [ch]A[/ch]            [ch]G[/ch]
quiero hacer el amor nadando en la piscina
         [ch]A[/ch]           [ch]G[/ch]
quiero hacer el amor oyendo a la vecina
         [ch]A[/ch]               [ch]G[/ch]
quiero hacer el amor en las puertas baiben
         [ch]A[/ch]          [ch]G[/ch]
quiero hacer el amor en el baño de un tren


riff 1
llevame a la alcoba, pasame la escoba
tocame con ganas, haz crujir la cama
pegame con fuerza, haz que me retuerza
matame si quieres, dime que te mueres

solo:
 [ch]A         [ch]G           LA[/ch]            SOL[/ch]
-------------------------------------------------------
-5-----5-5-----------3/5--3-----------------3-3~--3----
-2--2-------2--2--5----------5--2--5--2-5------5-------
-------------------------------------------------------
-------------------------------------------------------
-------------------------------------------------------

(la segunda guitarra toca el riff 1)
-----------------
-----------8-7---
-7/9-9-7/9-------
----------------- x4
-----------------
-----------------

         [ch]A[/ch]           [ch]G[/ch]
quiero hacer el amor, en tu auto nena
         [ch]A[/ch]         [ch]G[/ch]
quiero hacer el amor en la heladera
         [ch]A[/ch]               [ch]G[/ch]
quiero hacer el amor mirando television
         [ch]A[/ch]          [ch]G[/ch]
quiero hacer el amor en 2,20 volts


riff 1
llevame a la alcoba, pasame la escoba
tocame con ganas, haz crujir la cama
pegame con fuerza, haz que me retuerza
matame si quieres, dime que te mueres

(la segunda guitarra toca este riff, sin distorcion)
 [ch]A[/ch]          [ch]G[/ch]
------------------
----------2-------
--2--2-2-----4~---
-2---------------- x4
------------------
------------------

         [ch]A[/ch]             [ch]G[/ch]
quiero hacer el amor
         [ch]A[/ch]             [ch]G[/ch]
quiero hacer el amor
         [ch]A[/ch]             [ch]G[/ch]
quiero hacer el amor
         [ch]A[/ch]           [ch]G[/ch]      LA~
quiero hacer quiero hacer!

termina en LA
Suggest correction
Give kudos to tab author, rate the tab!
1 2 3 4 5
comments
print report bad tab
guest
You may want to rate the tab now too:
select rating
Wanna post a correction for this tab? Suggest correction