Oops, an error
Loading. Please wait.

Te Mataré Con Amor Tab

13 views 1 this week
no commentswrite comment
1 2 3 4 5
3 more votes to show rating
add to favorites
×
Save as Personal and add changes to this tab that will be seen only by you. Learn more ›
×
You can save this tab as Personal to edit and correct it or add notes. All changes will be seen only by you. Learn more »
save as personal
new!
launch autoscroll
font size
0
reset
how to read this tab
guitar tuner
Autoscroll
slow
fast
+/-
esc
set tempo
stop
intro x2
E-----------------------------------------------------------------
B-----------------------------------------------------------------
G-----------------------------------------------------------------
D----7-7-7-7-7-9-----7-7-7-7-7-9-----7-7-7-7-7-9------------------
A--6/7-7-7-7-5-7---6/7-7-7-7-5-7---6/7-7-7-7-5-7---6/7-6/7-6/7-6/7
E--4/5-5-5-5-------4/5-5-5-5-------4/5-5-5-5-------4/5-4/5-4/5-4/5

(riff 1)       
E------------------------
B------------------------
G------------------------
D--7-7-7-7-7-7-7-7--9-7--
A--7-7-7-7-7-7-7-7--7/5-7
E--5-5-5-5-5-5-5-5------5

riff 1
Escucha amor
a veces te amo
a veces te odio.
riff1
No seas tan frágil
no seas idiota
cupido no existe.

riff1
Te ríes de mi
gritándome ahora
gritándome siempre.
riff1
El Rodri me llama
me habla al oído
me tira las cartas.

F#      D        F#   D
Te mataré con amor

F#      D        E
Te mataré con amor

riff 1
Mañana tal vez
me odiarán
tu padre y tu madre
Verás a Juan
verás a Daniel
verás a Samuel.

riff1
Te regalé
mi troca de oleo
mi juego de libros.
[ch]A[/ch] policía
me encerrará
y me pudriré.

F#     D        F#     D
Ya la maté con amor.

F#     D        E
Ya la maté la maté

outro x2
E-----------------
B-----------------
G-----------------
D--6-6-6-7-6-4-9--
A--4-4-4-5-4-2-7--
E-----------------
riff 1 x2


F#244
Dx577
E0799
Suggest correction
Give kudos to tab author, rate the tab!
1 2 3 4 5
comments
print report bad tab
guest
Wanna post a correction for this tab? Suggest correction