Oops, an error
Loading. Please wait.

Te Mataré Con Amor Bass Tab

5 views 1 this week
no commentswrite comment
1 2 3 4 5
3 more votes to show rating
add to favorites
launch autoscroll
font size
0
reset
guitar tuner
Autoscroll
slow
fast
+/-
esc
set tempo
stop
Help us to improve Ultimate-Guitar.com Take our survey!
×
 - INTRO:

  G|----------------------------------|
  D|----------------------------------|
  A|-------------------5-7------------| 3 veces
  E|------4-5-55555555----------------|

  G|----------------------------------|
  D|----------------------------------|
  A|----------------------------------|
  E|---4-5-4-5-4-5-4-5----------------|

 - VERSO:

  G|----------------------------------------------|
  D|----------------------------------------------|
  A|-----------------------------------7-5--------| 4 veces
  E|---555555555555-4/5-55555-4/5-5555-----5------|


 - CORO:

  G|----------------------------------------------|
  D|-----------0-0-0-0---------0-0-0-0------------|
  A|----------------------------------------------|
  E|---2-2-2-2---------2-2-2-2---------00000000---|


 - VERSO 4 VECES

 - CORO

 - OUTRO :

  G|----------------------------------------------|
  D|----------------------------------------------|
  A|---4-4-4-4-5-4-2-7-7-7-7----------------------|3 VECES
  E|---------------(-4-3-2-0-)--------------------|

  lo ke esta entre parentesis se hace solo una ves

 - VEROS 2 VECES
Suggest correction
Give kudos to tab author, rate the tab!
1 2 3 4 5
comments
print report bad tab
guest
You may want to rate the tab now too:
select rating
Wanna post a correction for this tab? Suggest correction