Oops, an error
Loading. Please wait.

Guspira, Estel O Carícia Tab

by Mishima
103 views 1 this week
no commentswrite comment
1 2 3 4 5
x 3
add to favorites
launch autoscroll
font size
0
reset
how to read this tab
guitar tuner
×
Best way to learn
"Guspira, Estel O Carícia"
Autoscroll
slow
fast
+/-
esc
set tempo
stop
G:                C:                C/G:
D----0----0----0  D----2----2----2  D----0----0----0
A---------------  A--3----3----3--  A--2----2----2--
E--3----3----3--  E---------------  E---------------

Em:               D:
G----0----0----0  G---------------
D--2----2----2--  D----4----4----4
A---------------  A--5----5----5--
E---------------  E---------------

G                     C
La meva ànima voldira elairar-se
            C/G             C
però el meu cos no la deixa sortir
          Em         D              G
és com si jo volgués allunyar-me de mi

G: (x2)
e--------------3--2------
B----0--1--3--------3--0-
G------------------------
D------------------------
A------------------------
E--3---------------------

G                           C
Però quan l'àngel o la musa m'inspira
    C/G                C
sóc l'alè d'un exèrcit diví
    Am               D
sóc guspira, estel o carícia
    Am               D           Em   C   D   C
guspira, estel o carícia per fi.

INSTRUMENTAL

G: (x2)                   Am:
e--------------3--2------ e-------------3--2-----
B----0--1--3--------3--0- B----0--1--3-------3--0
G------------------------ G----------------------
D------------------------ D----------------------
A------------------------ A--0-------------------
E--3--------------------- E----------------------

D:
e-------------3--2------
B----0--1--3--------3--0
G-----------------------
D--0--------------------
A-----------------------
E-----------------------

(Guspira, estel o carícia)

G                           C
Però quan l'àngel o la musa m'inspira
G                      C
sóc l'alè d'un exèrcit diví
    Am               D
sóc guspira, estel o carícia
    Am               D       G
guspira, estel o carícia per fi.
Suggest correction
Give kudos to tab author, rate the tab!
1 2 3 4 5
comments
print report bad tab
guest
You may want to rate the tab now too:
select rating
Wanna post a correction for this tab? Suggest correction