Oops, an error
Loading. Please wait.
5 views 1 this week
no commentswrite comment
1 2 3 4 5
3 more votes to show rating
add to favorites
launch autoscroll
font size
0
reset
how to read this tab
guitar tuner
Autoscroll
slow
fast
+/-
esc
set tempo
stop
Help us to improve Ultimate-Guitar.com Take our survey!
×
Ayúdame:

|-----------|----------|-----------------------2ph3-0-|
|-----------|----------|------------------------------|
|----2h4-2--|----0h2-0-|-----0---2-----------2--------|
|--0--------|--0-------|--0----4-----0h2--0-----------|
|-----------|----------|-3----------------------------|
|-3---------|-2--------|------------------------------|

|-----------|-----|----------|--------------0-----------|
|-----3/5-3-|-----|----0h2-0-|-----------------3-1-0----|
|--0--------|-----|----------|--0-----0ph2------------3-|
|-----------|-0---|--2-------|-------2--------------0---|
|-----------|-----|-3--------|-2---0--------------------|
|-0---------|-----|----------|--------------------------|

|-2ph3-0----------2ph3-2---|
|-----2-----1r-------------|
|--------------------------|
|---------------0----------|
|--------------------------|
|--------------------------|
|--------------------------|


[ch]G[/ch]           [ch]F#/RE4[/ch]
Te conocí Fue fácil pensar
    [ch]C9           RE[/ch]
Que todo sería sencillo
[ch]G[/ch]            [ch]F#/RE4[/ch]
Yo junto a ti, Tú junto a mí
[ch]C9                  RE[/ch]
Como hasta hoy había sido


       [ch]C9[/ch]
Pero enfrento al mundo
     Si/re
Y me siento tan poco
      [ch]Am[/ch]                    [ch]D[/ch]
En mi alma hay tristeza y hastío
         [ch]C9[/ch]
Quiero hacer tantas cosas
       Si/re
Y no encuentro el camino
     [ch]Am[/ch]                 [ch]D[/ch]
Y de pronto me siento perdido


     [ch]G[/ch]               [ch]F#/RE4[/ch]
Ayúdame Señor a reencontrar tu amor
        [ch]C9                         RE[/ch]
Para vencer esta tristeza y este hastío
     [ch]G[/ch]                [ch]F#/RE4[/ch]
Ayúdame Señor cambia mi corazón
       [ch]C9                       RE[/ch]
Para poder sentir del pobre el dolor
     [ch]Em/RE4[/ch]  [ch]D4[/ch]          [ch]C9[/ch]
Ayúdame Señor quiero con mi oración
Si/re         [ch]Am          [ch]D   [ch]G[/ch]  [ch]C9[/ch] SOL[/ch] DO9[/ch]
Que siempre estemos juntos tu y yo


Interludio: [ch]G [ch]F#/RE4[/ch] [ch]C9[/ch] [ch]D4[/ch] RE[/ch]
            [ch]Em/RE4 [ch]F#/RE4[/ch] [ch]C9[/ch] SI/RE4[/ch]
            Lam7/re [ch]Am [ch]D4[/ch] RE[/ch]


[ch]G[/ch]           [ch]F#/RE4[/ch]
Te conocí Fue fácil pensar
    [ch]C9           RE[/ch]
Que todo sería sencillo
[ch]G[/ch]            [ch]F#/RE4[/ch]
Yo junto a ti, Tú junto a mí
[ch]C9                  RE[/ch]
Como hasta hoy había sido


       [ch]C9[/ch]
Pero enfrento al mundo
     Si/re
Y me siento tan poco
      [ch]Am[/ch]                    [ch]D[/ch]
En mi alma hay tristeza y hastío
         [ch]C9[/ch]
Quiero hacer tantas cosas
       Si/re
Y no encuentro el camino
     [ch]Am                 [ch]D[/ch]    MI[/ch]
Y de pronto me siento perdido


     [ch]A[/ch]                sol#/mi
Ayúdame Señor a reencontrar tu amor
        [ch]D                          MI[/ch]
Para vencer esta tristeza y este hastío
     [ch]A[/ch]                 sol#/mi
Ayúdame Señor cambia mi corazón
        [ch]D                 MI[/ch]
Para sentir del pobre el dolor
     [ch]F#m[/ch]     [ch]E[/ch]            [ch]D[/ch]
Ayúdame Señor quiero con mi oración
[ch]D/REb        [ch]Bm          [ch]E   RE[/ch] [ch]A9[/ch] RE[/ch] LA9[/ch]
Que siempre estemos juntos tú y yo


Fa#/re4: 200233
Do9:     x32033
Mim/re4: 022033
Si/re:   020030
Sol#/mi: 4x2450
Re/reb:  x4x230
Lam7/re: 002213

abrazos para la parroquia San Pedro Nolasco
Suggest correction
Give kudos to tab author, rate the tab!
1 2 3 4 5
comments
print report bad tab
guest
You may want to rate the tab now too:
select rating
Wanna post a correction for this tab? Suggest correction