Oops, an error
Loading. Please wait.
2 views 1 this week
no commentswrite comment
1 2 3 4 5
3 more votes to show rating
add to favorites
launch autoscroll
font size
0
reset
how to read this tab
guitar tuner
Autoscroll
slow
fast
+/-
esc
set tempo
stop
Help us to improve Ultimate-Guitar.com Take our survey!
×
ERA EL SEÑOR:

Intro: [ch]A9-[ch]D9[/ch]-[ch]F#m[/ch] [ch]E[/ch] RE9[/ch]
       Arpegiado: la9 la la9 la4 la la9
                  [ch]D9 [ch]F#m[/ch] MI[/ch]

|-7ph9-------------------------------------------|
|------10--9ph10-7-9-9p10------10ph12-9-10-12h14-|
|------------------------------------------------|
|------------------------------------------------|
|------------------------------------------------|
|------------------------------------------------|

|------------|---------0---|------------|-5-4-5-2-0--------
|-10-9--7----|----0--------|-3-2ph3-----|-----------0ph2---
|----------9-|---2---2---2-|----------2-|------------------
|------------|--2----------|------------|------------------
|------------|-0-----------|------------|------------------
|------------|-------------|------------|------------------

|-----|-------------------|
|-----|-------------------|
|-2---|-----2-2-----2-4h6-|
|---2-|-2h4-----2h4-------|
|-----|-------------------|
|-----|-------------------|

[ch]A9[/ch]     [ch]F#m*[/ch]                    [ch]C#m[/ch]
Amanecía cuando lo vi por vez primera
    [ch]D                [ch]A   LA/SOL#[/ch]  FA#m[/ch]
Sus ojos revelaron la ruta de mis   sueños
     [ch]Bm[/ch]                 [ch]E4LA7[/ch]
Su camino invitaba a mis pasos
  [ch]D9           [ch]F#m*      RE9          RE/DO#  [ch]Bm[/ch] SI9[/ch] SIm[/ch]
A no desfallecer       Y a no dejar caer
      [ch]E FA#[/ch]
Nunca más

     [ch]B9[/ch]           [ch]G#m[/ch]
Coro: Era el Señor que me tomó
[ch]E       [ch]C#m[/ch]    FA#[/ch]
Mi oscuridad disipó
[ch]B9[/ch]      [ch]G#m[/ch]
Y camino sobre mi mar
     [ch]E       [ch]C#m[/ch]        FA#[/ch]
La vida me llevó a conquistar
[ch]B9[/ch]      [ch]G#m[/ch]
Y dibujó su voluntad
      [ch]E     [ch]C#m[/ch]       FA#[/ch]
Y mis alas dejó en libertad

[ch]G#m[/ch] [ch]F#[/ch]       [ch]E[/ch]
Sigue siendo su voz
[ch]C#m              FA#[/ch]
Sigue siendo el Señor
[ch]D9  [ch]E[/ch] FA#m*[/ch]
Ooooo0000000oooooooh

[ch]D9 [ch]E  [ch]A9 RE9[/ch] LA9[/ch] MI[/ch]


Y desde entonces mi alma no conoce el sosiego
Sus palabras se volvieron tan vivas y sugerentes
     [ch]Bm                   [ch]E4[/ch] LA7[/ch]
Su silencio hoy me llama y grita
   [ch]D9[/ch]           [ch]C#m[/ch]
Desde mi corazón
    [ch]D9             RE/DO#  SIm[/ch]
Sin importar si voy
          [ch]E  FA#[/ch]
O quien sooooo0000Y

[ch]B9 [ch]G#m[/ch] [ch]E[/ch] [ch]C#m[/ch] FA#[/ch]
[ch]D9 [ch]E[/ch] LA9[/ch]

|-----------------2h4-4-6-6-7-7-----7h9-6-7-6-4-2-0---0----
|-4h5-5-5h7-7---------------------------------------4--4-2-
|----------------------------------------------------------
|----------------------------------------------------------
|----------------------------------------------------------
|----------------------------------------------------------

|----------------|-4h6-------5---5h7------|
|-0--------------|--------------------5-7-|
|---3-4-3ph4-----|------------------------|
|------------6-4-|------------------------|
|----------------|------------------------|
|----------------|------------------------|


[ch]A9                [ch]D9[/ch] LA9[/ch]
En cualquier parte
    [ch]F#m*[/ch]            [ch]C#m[/ch]
hoy creo escuchar su voz
   [ch]D9                 [ch]A9   LA/SOL#[/ch] FA#m[/ch]
La gente me lo dice no lo pueden callar
    [ch]Bm                        [ch]E4[/ch] LA7[/ch]
Su amor busca respuesta, mi respuesta
      [ch]D9[/ch]                  [ch]C#m[/ch]
No sé aun como será (no sé aun como será)
     [ch]D                  SIm[/ch]
Pero él la sostendrá (la sostendrá)
     [ch]E FA#[/ch]
Para siempre


Coro: Era el Señor que me tomó
[ch]E[/ch] oscuridad disipó
Y camino sobre mi mar
La vida me llevó a conquistar
Y dibujó su voluntad
Y mis alas dejó en libertad
Sigue siendo su voz
Sigue siendo el Señor
[ch]B9[/ch]        [ch]G#m[/ch]
Lara ra ra ra
[ch]E MI/RE#  [ch]C#m  FA#[/ch]               SI*[/ch]
Uh uh      uh uh uh huh uhuhuhuuuh huuuuu


La9:      002200
Re9:      x00230
Fa#m*:    044200
La/sol#:  402200
Re/do#:   x40232
Mi/re#:   06x454
Si9:      224422
Mi4:      022200
La7:      002020
La4:      002230
Si*:      799877

Darle gracias a DIOS y a todas aquellas
personas que han alimentado mi vicio de Dios
y de la música en mí y espero que lo sigan 
Agradecer a mis viejos(TM y yayita)
a mí hermano Hans, Michael y Fernando
y a mi hermanita que está en el cielo
Y a mis amigos:
César Saavedra, Aillen Ampuero,
David Donoso, Jorge Morales,
Francisco González, Ricardo Pérez,
Nadia Azócar, Andrés Moya,
Nelson López, Daniel Muñoz, Gerson Garrido,
Felipe Pardo, Alexis Salinas(chino),
Esteban Venegas(tuday), Mario González(marito)
Marcelo Vera, Sebastián Silva, John Baquedano,
Alex Morales, Álvaro Muñoz, Romina Moreno,
Alejandra Calderón, Jessica Armijo, AL 3ºDtmo.
y a todas las personas que en este momento
no recuerdo su nombre? le doy gracias a DIOS
por haberlas conocido.


SAGRADO CORAZÓN DE JESÚS? EN VOS CONFÍO?
Suggest correction
Give kudos to tab author, rate the tab!
1 2 3 4 5
comments
print report bad tab
guest
You may want to rate the tab now too:
select rating
Wanna post a correction for this tab? Suggest correction