Oops, an error
Loading. Please wait.

Te Quiero Para Mí Tab

22 views 3 this week
no commentswrite comment
1 2 3 4 5
3 more votes to show rating
add to favorites
launch autoscroll
font size
0
reset
how to read this tab
guitar tuner
Autoscroll
slow
fast
+/-
esc
set tempo
stop
Help us to improve Ultimate-Guitar.com Take our survey!
×
ke onda ..no ps este es el pekeño intro ke se escucha
 ..esta muy sencillo, solo hay que hacerlo rapido..
esta en los tonos de la cancion ke ya sta para ke no 
batallen.
   Dm
6---------------------------------------
5---------------------------------------
4---------------------------------------
3---------------------------------------
2--3---------------------3--------------
1----0-1--3--5--3--1--0----0--1--3--5---

Asost.M

6---------------------------------------
5---------------------------------------
4---------------------------------------
3---------------------------------------
2--3---------------------3--------------
1----0-1--3--5--3--1--0----0--1--3--5---

Gm                 A7              Dm
6---------------------------------------
5---------------------------------------
4---------------------------------------
3---------------------------------------
2--3---------------------------3--2--3--
1----0-1--3--5--3--1--0--1--0-----------

Bueno eso es todo, acabando el intro entra la rola 
La letra de la rola se la dedico especialmente a mi niña 
peciosa..te KieRo a MaNgArInAs KriStInA tReJo KaRrILLo
IdEa_Sa
Suggest correction
Give kudos to tab author, rate the tab!
1 2 3 4 5
comments
print report bad tab
guest
You may want to rate the tab now too:
select rating
Wanna post a correction for this tab? Suggest correction