Oops, an error
Loading. Please wait.

El Tiempo Pasó Tab

19 views 1 this week
no commentswrite comment
1 2 3 4 5
3 more votes to show rating
add to favorites
launch autoscroll
font size
0
reset
how to read this tab
guitar tuner
×
Best way to learn
"El Tiempo Pasó"
Autoscroll
slow
fast
+/-
esc
set tempo
stop
Intro 1

1-------------8-10-10-10-10-10-10-10-10----
2--8-8-8-8-8-------------------------------
3------------------------------------------
4------------------------------------------
5------------------------------------------
6------------------------------------------

1-----------8-10-10-10-10-10-10-10-10------
2-7-7-7-7-7--------------------------------
3------------------------------------------
4------------------------------------------
5------------------------------------------
6------------------------------------------

1-----------------------11--13-13-13-13----
2--/13-13-13-13-13-------------------------
3------------------------------------------
4------------------------------------------
5------------------------------------------
6------------------------------------------

1--13-12----------------------------------
2---------13-12---12-12-12-13--12--10~----
3------------------------------------------
4------------------------------------------
5------------------------------------------
6------------------------------------------


Intro 2


1-------------8-10-10-10-10-10-10-10-10-----
2--8-8-8-8-8--------------------------------
3-------------------------------------------
4-------------------------------------------
5-------------------------------------------
6-------------------------------------------

1-----------8-10-10-10-10-10-10-10-10------
2-7-7-7-7-7--------------------------------
3------------------------------------------
4------------------------------------------
5------------------------------------------
6------------------------------------------

1-----------------------11--13-13-13-13-----
2--/13-13-13-13-13--------------------------
3-------------------------------------------
4-------------------------------------------
5-------------------------------------------
6-------------------------------------------

1--13-12----------------------------------
2---------13-12---12-12-12-13--12--10~----
3------------------------------------------
4------------------------------------------
5------------------------------------------
6------------------------------------------

1------------------------------------------
2--10-10-12-10-9--8~-----------------------
3------------------------------------------
4------------------------------------------
5------------------------------------------
6------------------------------------------


  G5                                 D5
ha pasado tanto tiempo y nos volvimos a encontrar

   C5                        G5    D5
 y volvimos a mirarnos como antes,

  G5                               D5
ha pasado tanto tiempo y nos volvimos a abrazar

    C5                      G5    D5
y volvimos a besarnos como antes

            E5           C5         G5
dime porque me dejaste sin decir adiós

      C5           D5
lastimándome el corazón

          E5                 C5             G5
el tiempo paso ahora es momento sanar el dolor,


          C5                    D5
es momento de pagar tu traicion

           E5          C5              G5
perdoname si solo quiero disfrutar el placer,


    C5                    D5
si solo quiero jugar con usted


    G5          D5
perdoname...


 - Intro 1 y 2


  G5                                 D5
ha pasado tanto tiempo y nos volvimos a encontrar

   C5                        G5    D5
 y volvimos a mirarnos como antes,

  G5                               D5
ha pasado tanto tiempo y nos volvimos a abrazar

    C5                      G5    D5
y volvimos a besarnos como antes

            E5           C5         G5
dime porque me dejaste sin decir adiós

      C5           D5
lastimándome el corazón

          E5                 C5             G5
el tiempo paso ahora es momento sanar el dolor,


          C5                    D5
es momento de pagar tu traicion

           E5          C5              G5
perdoname si solo quiero disfrutar el placer,


    C5                    D5
si solo quiero jugar con usted

   G5          D5
perdoname...(X3)

FIN: D5 D5 D5 G5.


escuchen el tema para que le salga bien
Bueno eso es todo saludos a mi mama y a mi perro y gato
aguante el punk rock jujuy
cualquier duda o correcion al correo
Suggest correction
Give kudos to tab author, rate the tab!
1 2 3 4 5
comments
print report bad tab
guest
You may want to rate the tab now too:
select rating
Wanna post a correction for this tab? Suggest correction