Oops, an error
Loading. Please wait.

Las Cenizas Quedarán Tab

version 1
version 1

Whole song

23 views 1 this week
no commentswrite comment
1 2 3 4 5
3 more votes to show rating
add to favorites
launch autoscroll
font size
0
reset
how to read this tab
guitar tuner
×
Best way to learn
"Las Cenizas Quedarán"
Autoscroll
slow
fast
+/-
esc
set tempo
stop
Hola, tengo 14 años, y con la banda queríamos tocar este tema,
pero no estaba el solo, asi q lo escribí. Debe tener algunos errores,
si los ves, avisame: rollape@
VAMOS BERSUIT!


/   SLIDE (arrastre)
B   BEND (corvar)
p   PULL OFF [tirón]
r   RELEASE (Bajar el Bend)


[ch]Bm[/ch]                [ch]F#m[/ch]
Años de miseria azotaron al país
     [ch]E[/ch]
todo sigue igual de mal
      [ch]D[/ch]
no se donde irá a parar.

[ch]Bm[/ch]                [ch]F#m[/ch]
La represión y la censura dominaron
     [ch]E[/ch]
el temor se hizo presente
      [ch]D[/ch]
en el ódio de la gente.

[ch]E                FA#m[/ch]
Plaza de Mayo inundada de angustia
[ch]E                FA#m[/ch]
almas perdidas que gritan desde muy lejos
[ch]E                FA#m[/ch]
el gobierno se concentra en afanar
[ch]E                FA#m[/ch]
la justicia donde está? que se vayan a cagar.


1er Solo:

1.---------------------------------------------------------------
2.-----------17p14-----------------------------------------------
3.--16b-------------16--16b--14------14--16--16b--14/13--13------
4.---------------------------------------------------------------
5.---------------------------------------------------------------
6.---------------------------------------------------------------


1.----------------------------------------------------------------
2.----------------------------------------------------------------
3.--14--13------16--14--13----------------------------------------
4.--------------------------16--16------16----14------16----14----
5.------------------------------------------------16------------16
6.----------------------------------------------------------------


1.-------------------------------------------------------------------
2.-------------------------------------------------------------------
3.-------------------------------------------------------------------
4.--14--14--------------------14------16----14------14--16b----14----
5.------------16--14------16------16------------16-----------------16
6.--------------------17---------------------------------------------


1.---------------------------------------------------------------------
2.--------------------------------------------17-----------------------
3.------------------14---------14-----14--16b>>>>16r--14------14--16--13
4.--14------14--16------16---------16---------------------16-----------
5.------16-------------------------------------------------------------
6.---------------------------------------------------------------------


1.----------------------------------------------------------------
2.----------------------------------------------------------------
3.------14--13-----16--14--13-------------------------------------
4.-----------------------------16--16-----16--14------16----14----
5.------------------------------------------------16------------16
6.----------------------------------------------------------------


1.---------------------
2.---------------------
3.---------------------
4.----14------14--16--16
5.--------16-----------
6.---------------------


[ch]Bm[/ch]                [ch]F#m[/ch]
La guerra se asomó allá en el horizonte
     [ch]E[/ch]
los cobardes se escaparon
      [ch]D[/ch]
el país se fué al carajo.


[ch]Bm[/ch]                [ch]F#m[/ch]
Nadie se hizo cargo de aquel sufrimiento
     [ch]E[/ch]
las protestas seguiran
      [ch]D[/ch]
ellos están en libertad.


[ch]E                FA#m[/ch]
Plaza de Mayo inundada de angustia
[ch]E                FA#m[/ch]
almas perdidas que gritan desde muy lejos
[ch]E                FA#m[/ch]
aprueban leyes para solo encubrirlos
[ch]E                FA#m[/ch]
aunque el fuego ya no está
[ch]E                FA#m[/ch]
las cenizas quedarán.


Solo 2:

1.------------------------------------------------------------
2.------------------------------------------------------------
3.------------------------------------------------------------
4.------------------------------------------------------------
5.--14b----14b-14r--12----------------12--14--14b>>14r--12--11
6.---------------------14--14-----14--------------------------

1.---------------------------------------------------------------------
2.---------------------------------------------------------------------
3.---------------------------------------------------------------------
4.---------------------------------------------------------------------
5.--12--11----12/14--12--11--7/9----9--7---9--7--12--14--14b-14r--12---
6.----------------------------------------9--------------------------14

1.----------------------------------------------------------------------
2.----------------------------------------------------------------------
3.----------------------------------------------------------------------
4.-----------------------------------------14---------------------------
5.------14b-14r--12-------12--14--12--14b>>>>14b--14r--12------12--14--11
6.-------------------14------------------------------------14-----------

1.----------------------------------------------------
2.----------------------------------------------------
3.----------------------------------------------------
4.----------------------------------------------------
5.--12/14--12--11--7/9----9--7---9--7-----7-----7-----
6.------------------------------9------9-----9-----9--9
Suggest correction
Give kudos to tab author, rate the tab!
1 2 3 4 5
comments
print report bad tab
guest
You may want to rate the tab now too:
select rating
Wanna post a correction for this tab? Suggest correction