Oops, an error
Loading. Please wait.

Las Cenizas Quedarán Tab

version 2
version 2

Whole song

5 views 1 this week
no commentswrite comment
1 2 3 4 5
3 more votes to show rating
add to favorites
launch autoscroll
font size
0
reset
how to read this tab
guitar tuner
Autoscroll
slow
fast
+/-
esc
set tempo
stop
Help us to improve Ultimate-Guitar.com Take our survey!
×
Bueno este punteo es bastante facil, parece un quilombo pero no
es tan complicado.. practiquenlo porq esta muy bueno.. cualquier
cosa.. fran082@

v: estirar la cuerda hacia arriba
.. : mantener esa nota un tiempo


1)------------12-9------------------------------------------------
2)--12v..---------12v-10..---10-12-12v-10-9..-----10-9-12-10-9----
3)-------------------------11-------------------------------11-11-
4)----------------------------------------------------------------
5)----------------------------------------------------------------
6)----------------------------------------------------------------

1)------------------------------------------------------------
2)------------------------------------------------------10----
3)--11-9--11-9---9-9----------9--11-9--9-11v--9--9--9s11--11--
4)------11-----11---11-9----11-11----11--------11-11----------
5)--------------------11--------------------------------------
6)------------------------------------------------------------

1)-------------12-----------------------------------------------
2)--10--10--12v--12V--10--10s12--9..-----10-9--12-10-9----------
3)----11----------------12--------------------------11-11-------
4)--------------------------------------------------------------
5)--------------------------------------------------------------
6)--------------------------------------------------------------

1)-----------------------------------------------------------
2)-----------------------------------------------------------
3)---11-9---11-9---9--9s11-11..------------------------------
4)-------11-----11--11---------------------------------------
5)-----------------------------------------------------------
6)-----------------------------------------------------------
Suggest correction
Give kudos to tab author, rate the tab!
1 2 3 4 5
comments
print report bad tab
guest
You may want to rate the tab now too:
select rating
Wanna post a correction for this tab? Suggest correction