Oops, an error
Loading. Please wait.

Por Qué? Tab

2 views 1 this week
no commentswrite comment
1 2 3 4 5
3 more votes to show rating
add to favorites
launch autoscroll
font size
0
reset
how to read this tab
guitar tuner
×
Best way to learn
"Por Qué?"
Autoscroll
slow
fast
+/-
esc
set tempo
stop
------------------------------------
G-C-D
Porque todo me resulta pasajero?
G-C-D
Porque todo tiene que tener final?


|----------------------------|
|-----------------7-8-8-7----|
|-------(5)---(7)-7-7-7-7----|
|--(5)--(5)---(7)-7-7-7-7----|
|--(5)--(3)---(5)------------|
|--(3)-----------------------|

------------------------------------

|----------------------|
|----------------------|
|-5-5-5-5--------------|
|-5-5-5-5--------------|
|-3-3-3-3-5-5-7-5-7----|
|---------3-3-3-3-3----|

C-G
porque todo lo que busca nunca nunca lo encuentro
D-C-G (D)(D)
exigo que alguien baje y venga a darme una explicacion

|----------------------------------|
|----------------------------------|
|-7-7-5-5---------------(7)-(7)----|
|-7-7-5-5---------------(7)-(7)----|
|-5-5-3-3-5-5-7-5-7-5---(5)-(5)----|
|---------3-3-3-3-3-3--------------|

------------------------------------

|--------------------------------------|
|--------------------------------------|
|--------------------------------------|
|--------------------5-7-5-7-5-7-5-7---|2e
|--5-7-5-7-5-7-5-7---3-3-3-3-3-3-3-3---|
|--3-3-3-3-3-3-3-3---------------------|
G-C
porque tiene que existir el amor y no podemos ser como animales
G-C
porque tengo que envejecer y no hay remedios para ser inmortales


------------------------------------
D-G-C-D
porque todo lo que me da placer la gente lo detesta
D-G-C-(D)(D)
porque cada dia que me levanto no encuentro las respuestas

  D       G     C    D
|-----|-------|---|------------------|
|-----|-------|---|------------------|
|-7-7-|-12-12-|5-5|-7-7--------------|
|-7-7-|-12-12-|5-5|-7-7--------------|
|-5-5-|-10-10-|3-3|-5-5--------------|
|-----|-------|---|------------------|


------------------------------------
G-C-D
Porque todo me resulta pasajero?
G-C-D
Porque todo tiene que tener final?


|----------------------------|
|-----------------7-8-8-7----|
|-------(5)---(7)-7-7-7-7----|
|--(5)--(5)---(7)-7-7-7-7----|
|--(5)--(3)---(5)------------|
|--(3)-----------------------|

------------------------------------

|----------------------|
|----------------------|
|-5-5-5-5--------------|
|-5-5-5-5--------------|
|-3-3-3-3-5-5-7-5-7----|
|---------3-3-3-3-3----|

C-G
porque todo lo que busca nunca nunca lo encuentro
D-C-G (D)(D)
exigo que alguien baje y venga a darme una explicacion

------------------------------------

|--------------------------------------|
|--------------------------------------|
|--------------------------------------|
|--------------------5-7-5-7-5-7-5-7---|2e
|--5-7-5-7-5-7-5-7---3-3-3-3-3-3-3-3---|
|--3-3-3-3-3-3-3-3---------------------|
G-C
porque no usar mas el corazon y no escuchar pensamientos razonables
G-C
porque no volver el tiempo atras y no tener mas responsabilidades

------------------------------------
D-G-C-D
porque siempre los malos manejos desencadenan en guerra
D-G-C-(D)(D)
porque tenemos que pagar por los que nos gobiernan


  D       G     C    D
|-----|-------|---|------------------|
|-----|-------|---|------------------|
|-7-7-|-12-12-|5-5|-7-7--------------|
|-7-7-|-12-12-|5-5|-7-7--------------|
|-5-5-|-10-10-|3-3|-5-5--------------|
|-----|-------|---|------------------|


------------------------------------

G-C-D x2

|---------------------------|
|---------------------------|
|----7-9-7---7-9-7---7-9-7--|
|--9-------9-------9--------|
|---------------------------|
|---------------------------|

|---------------------------|
|---------------------------|
|----7-9-7---7-9-7----------|
|--9-------9-------9h7-5-7--|
|---------------------------|
|---------------------------|

                 G-C

|--------------------------------------|
|--------------------------------------|
|--------------------------------------|
|--------------------5-7-5-7-5-7-5-7---|2e
|--5-7-5-7-5-7-5-7---3-3-3-3-3-3-3-3---|
|--3-3-3-3-3-3-3-3---------------------|


------------------------------------

D-G-C-D
porque uno recuerda siempre al dolor tapando la alegria
D-G-C-(D)(D)
porque no pueden ser tus ojos los que den brillo a mi vida

  D       G     C    D
|-----|-------|---|------------------|
|-----|-------|---|------------------|
|-7-7-|-12-12-|5-5|-7-7--------------|
|-7-7-|-12-12-|5-5|-7-7--------------|
|-5-5-|-10-10-|3-3|-5-5--------------|
|-----|-------|---|------------------|


------------------------------------
G-C-D
Porque todo me resulta pasajero?
G-C-D
Porque todo tiene que tener final?


|----------------------------|
|-----------------7-8-8-7----|
|-------(5)---(7)-7-7-7-7----|
|--(5)--(5)---(7)-7-7-7-7----|
|--(5)--(3)---(5)------------|
|--(3)-----------------------|

------------------------------------

|----------------------|
|----------------------|
|-5-5-5-5--------------|
|-5-5-5-5--------------|
|-3-3-3-3-5-5-7-5-7----|
|---------3-3-3-3-3----|

C-G
porque todo lo que busca nunca nunca lo encuentro
D-C-G (D)(D)
exigo que alguien baje y venga a darme una explicacion

------------------------------------

     E
|------------|
|------------|
|-9-9-9-9----|
|-9-9-9-9----|
|-7-7-7-7----|
|------------|


------------------------------------

A-D-E
Porque todo me resulta pasajero?
A-D-E
Porque todo tiene que tener final?

D-A
porque todo lo que busca nunca nunca lo encuentro
E-D-A
exigo que alguien baje y venga a darme una explicacion
E-D-A
exigo que alguien baje y venga a darme una explicacion
E-D-A
exigo que alguien baje y venga a darme una explicacion
Suggest correction
Give kudos to tab author, rate the tab!
1 2 3 4 5
comments
print report bad tab
guest
You may want to rate the tab now too:
select rating
Wanna post a correction for this tab? Suggest correction