Oops, an error
Loading. Please wait.

Sábanas Frías Tab

8 views 1 this week
no commentswrite comment
1 2 3 4 5
3 more votes to show rating
add to favorites
launch autoscroll
font size
0
reset
how to read this tab
guitar tuner
×
Best way to learn
"Sábanas Frías"
Autoscroll
slow
fast
+/-
esc
set tempo
stop
Intro: ( A - D - Bm - E )

E|---------------------|--------|----------------|---------------------------|
1|---------------------|-2--2v--|----------------|-----5---------------------|
E|-----2-4br-4br-(2v)--|---4----|----2-2--2/4----|-4/6---6-4-4/2-------------|
D|-2/4-----------------|--------|-2h4----4-------|---------------------------|
A|---------------------|--------|----------------|---------------------------|
E|---------------------|--------|----------------|---------------------------|

A                                 D
La escena me dice que está todo por terminar,
Bm                              E
tu gesto en la cara, la carta por entregar.
A                               D
Nunca pensé que esto iba a llegar,
Bm                              E
tu ropa empacada ya no hay nada más que hablar.
A                                 D
Vos sabés como fueron las cosas,
Bm                              E
otra vez no escuchaste la historia.

( A - D - Bm - E )

A                                 D
Anteriormente siempre me tuve que adecuar,
Bm                              E
todos tus caprichos heredaste de tu mamá.
A                                 D
Pero esta vez no me vas a arruinar mi vida,
Bm                              E
andate tranquila, otra ocupará tu lugar.

D                    E
Voy a recuperar el tiempo perdido,
D                      F#m
yo nunca quise que esto fuera así,
       E
no fui yo...

e|---------------------|------------|--------------------|-----------------------|--------------------|
B|---------------------|-5-2--------|--------------------|-----------------------|-----------5--------|
G|----2-4-4br-4br-(2v)-|-----4-2----|--------2---2-4b-4b-|-4-2-4br--4-2-4-2-(1v)-|-1h2-4-4/6---6-4-2--|
D|-2/4-----------------|---------4--|--0-2-4---4---------|-----------------------|--------------------|
A|---------------------|------------|--------------------|-----------------------|--------------------|
E|---------------------|------------|--------------------|-----------------------|--------------------|


D|-7br-7-5-4-2-|-----2-2h0--|-(7v)-7-5-7br-7-5-7-5-4-|-4h5-7-7/9--9-7-5-4-4h(5v)-|
A|-------------|-2-5------4-|------------------------|---------------------------|
E|-------------|------------|------------------------|---------------------------|
D|-------------|------------|------------------------|---------------------------|
A|-------------|------------|------------------------|---------------------------|
E|-------------|------------|------------------------|---------------------------|

A                                 D
Recuerdo siempre los momentos que pasé,
Bm                              E
me duele tu ausencia, pero a las calles volveré.
A                                 D
Y así por las noches ni los sueños reparten consuelo
Bm                              E
las sábanas frías congelan mi desvelo.

D                    E
Voy a recuperar el tiempo perdido,
D                      F#m
yo nunca quise que esto fuera así,
      E
no fui yo...

( A - D - Bm - E )
Lalaralarala...


el ghetto del rey
Suggest correction
Give kudos to tab author, rate the tab!
1 2 3 4 5
comments
print report bad tab
guest
You may want to rate the tab now too:
select rating
Wanna post a correction for this tab? Suggest correction