Oops, an error
Loading. Please wait.

El Niño Del Tambor Tab

339 views 1 this week
no commentswrite comment
1 2 3 4 5
3 more votes to show rating
add to favorites
launch autoscroll
font size
0
reset
how to read this tab
guitar tuner
Autoscroll
slow
fast
+/-
esc
set tempo
stop
Canción saliente del disco "Nos Vemos en el Invierno" (2005)

 El camino que lleva ha Belén,
 baja hasta el valle que la nieve cubrió,
 los pastorcillos quieren ver ha su rey,
 le traen regalos en su humilde zurrón.

 Ro, po, pon, pon,
 ro, po, pon, pon.

  F#
 Ha nacido en un portal de Belén
C#
 el niño Dios.

 F#5
 Yo quisiera poner a tus pies

 algún presente que te agrade señor,
C#5
 más tú ya sabes que soy pobre también,
                        B5
 y no poseo más que un viejo tambor.

 F#5
 Ro, po, pon, pon,
 C#5
 ro, po, pon, pon.

F#5
 En tu honor frente al portal tocare
C#5        F#5
 con mi tambor.

 Auh!

e|----------------------------|-----------------------------------|
B|-----9-11-11-11-12-11-12-11-|---------9-11-11-11-11-12-11-12-11-|
G|-11^------------------------|-11^-11^---------------------------|
D|----------------------------|-----------------------------------|
A|----------------------------|-----------------------------------|
E|----------------------------|-----------------------------------|

e|---------9-9-9-11-9---------|---------9-9-9-11-12-11-9----|
B|-9-11-12------------12-11-9-|-9-11-12------------------12-|
G|----------------------------|-----------------------------|
D|----------------------------|-----------------------------|
A|----------------------------|-----------------------------|
E|----------------------------|-----------------------------|

e|-11-9--------9----------|-----------------------------------|
B|------12-11----12-11-9^-|-11^-11-11-11^-11-11-11^-11-11-11^-|
G|------------------------|-----------------------------------|
D|------------------------|-----------------------------------|
A|------------------------|-----------------------------------|
E|------------------------|-----------------------------------|

 F#5                                  B5 B5 C5 C#5
 Cuando Dios me vió rockeando ante él
        F#5
 me sonrió.

 G5
 El camino que lleva a Belén,

 lo Voy marcando con mi viejo tambor,
D5
 nada mejor hay que te pueda ofrecer,
                        C5
 su ronco acento es un canto de amor.

  G5
 Ro, po, pon, pon,
  D5
 ro, po, pon, pon.

  G5                                  C5  C5 C5 C#5 D5
 Cuando Dios me vio rockeando ante él
         G5
 me sonrió.

 D5
 Oh! oh! oh! oh! oh! oh! oh! oh!
 C5                              G5
 oh! oh! oh! oh! oh! oh! oh! oh! oh! auh!

 [Solo batería]

 F5   C5   G5 G5 G5 G5   G5 F5 G5
Suggest correction
Give kudos to tab author, rate the tab!
1 2 3 4 5
comments
print report bad tab
guest
Wanna post a correction for this tab? Suggest correction