Oops, an error
Loading. Please wait.

Entrégate Bass Tab

116 views 1 this week
no commentswrite comment
1 2 3 4 5
3 more votes to show rating
add to favorites
launch autoscroll
font size
0
reset
guitar tuner
Autoscroll
slow
fast
+/-
esc
set tempo
stop
Help us to improve Ultimate-Guitar.com Take our survey!
×
g-------------------------------------------------------------------|
d-------------------------------------------------------------------|
a---------------------------------3-3-3-3-3-3-3-3-0-0-0-5-5-5-------|x6
e-0-0-0-0-0-0-0-0-0-0-2-2-3-3-2-2-----------------------------------|

Fobia a bailar, pánico en la pista
Tienes miedo de hablar, terror de salir conmigo
Pues te vas a clavar, te gusta vivir sufriendo
Te la pasas fatal, con un pasaporte al odio

g-------------------------------------------------------------------|
d-------------------------------------------------------------------|
a-3-3-3-3-3-3-3-3-5-5-5-5-5-5-5-5-----------------------------------|
e---------------------------------0-0-0-0-0-0-0-0-0-0-2-2-3-3-2-2---|

Te da miedo el rock

g-------------------------------------------------------------------|
d-------------------------------------------------------------------|
a-3-3-3-3-3-3-3-3-4-4-4-4-4-4-4-4-5-5-5-5-5-5-5-5-6-6-6-6-6-6-6-6---|
e-----------------------------------------------------------------7-|

déjate llevar.

g-------------------------------------------------------------------|
d---------------0-----------------2-2-2-2-2-2-2-2-------------------|
a-----------0-2---2-2-2-2-2-2-2-2-----------------3-3-3-3-3-3-3-3---|x3
e-3-3-3-3-3---------------------------------------------------------|

Entrégate, no lo pienses ya
Vive salvaje una vez mas, Entrégate

g-------------------------------------------------------------------|
d---------------------------------2-2-2-2-2-2-2-2-------------------|
a-------------------------------------------------3-3-3-3-3-3-3-3---|
e-3-3-3-3-3-3-3-3-2-2-2-2-2-2-2-2-----------------------------------|

el alcohol se acabo
Es momento de besarnos sin

g------------------------|
d------------------------|
a-------3----------------|
e-3-2-0------------------|

control.

Fobia al amor, tu vives en el desierto
Eres tu peor maldición, la vida te juega sucio
Es la ley se atracción, te quieres ir a la India
Y encontrar salvación, no te vayas tan lejos.

Te asusta el pop, déjate llevar.

Entrégate, no lo pienses ya
Vive salvaje una vez mas.
Entrégate, el alcohol se acabo
Es momento de besarnos sin control.

Entrégate, ya no seas esclavo del pasado baila mas.
Entregate, el alcohol se acabo
Es momento de besarnos sin control

g-------------------------------2-----------------------------------|
d---------------0-----------0-2---2-2-2-2-2-2-2-2-------------------|
a-----------0-2---2-2-2-2-2-----------------------3-3-3-3-3-3-3-3---|
e-3-3-3-3-3---------------------------------------------------------|

oh, oh, oh, oh, oh
Suggest correction
Give kudos to tab author, rate the tab!
1 2 3 4 5
comments
print report bad tab
guest
You may want to rate the tab now too:
select rating
Wanna post a correction for this tab? Suggest correction