Oops, an error
Loading. Please wait.

Eres Mi Batería Tab

104 views 1 this week
no commentswrite comment
1 2 3 4 5
3 more votes to show rating
add to favorites
launch autoscroll
font size
0
reset
how to read this tab
guitar tuner
Autoscroll
slow
fast
+/-
esc
set tempo
stop
Help us to improve Ultimate-Guitar.com Take our survey!
×
Q onda amigos!!! Soy el Araña y ps esta es mi primera colavoracion
espero y les sirva muxo aun hay uno q otro error pero
ya es casi toda la cancion espero y les guste esta muy facil.

Bueno ps en la cacion casi todo va con palmiuting una
q otra parte que no, es solo kosa de que escuchen
la cacion y de ahi se guien.

Ok esta cancion empieza con un solo de guitarra despues
de la bateria que se repite 4 veses en la
cancion que es bastante facil aki se los dejo:

e--------------------------------------------------------------
B--------------------------------------------------------------
G------7-----7---7-9-7--------7---7-9-7-------7-9-9b11---7-----
D--7h9-----9---9-------9-----9--9-----------9--------------9---
A--------------------------------------------------------------
E--------------------------------------------------------------

e------------------------------------------
B------- 7h10p7-10s12----------------------
G------------------------------------------
D------------------------------------------
A------------------------------------------
E------------------------------------------


 B5                 A5
Y se alinearon todos los planetas,
 B5                 A5
de las cenizas te vi resurgir,
 B5                 A5
el ave fenix de mis fantasías,
 B5                 A5
he decidido encadenarte a mi.

 B5                 A5
Era el destino eso ya estaba escrito,
 B5                 A5
como un trueno te escuche rugir,
 B5                 A5
y sin temor y ningún sacrificio,
 B5                 A5
has decidido entregarte a mi.

 B5      C#5      D5
Hoy sabras quien es tu amo
 E5            B5     C#5
quien controlará tu voz
  D5            E5        C#5
en cada impacto yo te adoraré.

 G5                D5
Si me encanta como brillas
                  E5
sensual y siempre lista
             B5   A5
hasta el amanecer.
 G5            D5
Tu eres mi batería
                E5
tocarte noche y día
            B5   A5
mi única ilusión.

e--------------------------------------------------------------
B--------------------------------------------------------------
G------7-----7---7-9-7--------7---7-9-7-------7-9-9b11---7-----
D--7h9-----9---9-------9-----9--9-----------9--------------9---
A--------------------------------------------------------------
E--------------------------------------------------------------

e------------------------------------------
B------- 7h10p7-10s12----------------------
G------------------------------------------
D------------------------------------------
A------------------------------------------
E------------------------------------------

 B5                 A5
Es que tu y yo somos almas gemelas,
 B5                 A5
siguioso atras ya lo veía venir,
 B5                 A5
y te lo digo a la luz de las velas,
 B5                 A5
dios te creo perfecta para mi.

 B5                 A5
Contigo todas las palabras sobran,
 B5                 A5
cuando estoy triste tu estas junto a mi,
 B5                 A5
yo a tu ritmo toco las estrellas,
 B5                 A5
no ha habido nadie que me mueva asi.

B5      C#5      D5
Hoy sabras quien es tu amo
 E5            B5     C#5
quien controlará tu voz
  D5            E5        C#5
en cada impacto yo te adoraré.


 G5                D5
Si me encanta como brillas
                  E5
sensual y siempre lista
             B5   A5
hasta el amanecer.
 G5            D5
Tu eres mi batería
                E5
tocarte noche y día
            B5   A5
mi única ilusión.

A------9h10p9----8h9p8----7h8p7----5-----------    X7
E-------------------------------------7--------

A------9h10p9----8h9p8----8h9h10---8h9h10---8h9h10-----
E------------------------------------------------------

e--------------------------------------------------------
B--------------------------------------------------------
G------7-----7---7-9-7--------7---7-9-7----------7-------
D--7h9-----9---9-------7-----9--9-------9---9999----9----
A--------------------------------------------------------
E--------------------------------------------------------

e-----------------------------------------------------------
B-------7h10p7h10p7h10p7--12h15p12h15p12h15p--15b19---------
G-----------------------------------------------------------
D-----------------------------------------------------------
A-----------------------------------------------------------
E-----------------------------------------------------------

 G5                D5
Si me encanta como brillas
                  E5
sensual y siempre lista
             B5   A5
hasta el amanecer.
Tu eres mi batería
tocarte noche y día
[ch]E[/ch] única ilusión.

 G5                D5
Si me encanta como brillas
                  E5
sensual y siempre lista
             B5   A5
hasta el amanecer.
 G5            D5
Tu eres mi batería
                E5
tocarte noche y día
            B5   A5 G5--- A5---- B5--C#5-D5-E5-F#5----E5
[ch]E[/ch] única ilusión.
Suggest correction
Give kudos to tab author, rate the tab!
1 2 3 4 5
comments
print report bad tab
guest
You may want to rate the tab now too:
select rating
Wanna post a correction for this tab? Suggest correction