Oops, an error
Loading. Please wait.

Estarás Tab

version 1
version 1

Whole song

55 views 1 this week
no commentswrite comment
1 2 3 4 5
3 more votes to show rating
add to favorites
launch autoscroll
font size
0
reset
how to read this tab
guitar tuner
×
Best way to learn
"Estarás"
Autoscroll
slow
fast
+/-
esc
set tempo
stop
aKi lEs dEjO mI vErSiON .... espErO Q LeS GuStE
pArA iNf: eduyhad13_12@

intro:
1-------------------------------------------------------
2-------0----0----0------0------0-----0-----0-----0-----
3-----0----0----0------0------0-----0-----0-----0-------
4---0----0----0-------------2-----2-----2-----2---------
5-------------------4-----------------------------------
6-------------------------------------------------------
estrofa 1:
1-------------------------------------------------------
2-------0----0----0------0------0-----0-----0-----0-----
3-----0----0----0------0------0-----0-----0-----0-------
4---0----0----0-------------2-----2-----2-----2---------
5-------------------4-----------------------------------
6-------------------------------------------------------
Con un disco de Led Zeppelin, y este wisky para acompañar

1----------------------------------------------------
2------1-----1-----1-----1-------1-----1-----1-----1-
3----2-----2-----2-----2-------0-----0-----0-----0---
4--2-----2-----2-----2-------2-----2-----2-----2-----
5----------------------------------------------------
6----------------------------------------------------
    sientate aqui              vamos hablar

2-------0----0----0------0------0-----0-----0-----0-----
3-----0----0----0------0------0-----0-----0-----0-------
4---0----0----0-------------2-----2-----2-----2---------
5-------------------4-----------------------------------
 se que algunas veces me perdi que algunas fiestas termine muy mal

2------1-----1-----1-----1-------1-----1-----1-----1-
3----2-----2-----2-----2-------0-----0-----0-----0---
4--2-----2-----2-----2-------2-----2-----2-----2-----
      puedo sentir             es el final

2-----1------1------1------1---
3---2------2------2------2-----
4-2------2------2------2-------
      Nunca quise que saliera mal

2------1------1------1------1-----
3----2------2------2------2-------
4--3------3------3------3---------
       y aunque no me vuelvas abrazar

2-----1------1------1------1---
3---2------2------2------2-----
4-2------2------2------2-------
      y no vuelva a verte nunca mas

  D
tu estaras

Coro: Rasgado O Arpegio 3, 2, 1 cuerdas
         C

en mi voz, que siempre
                G              Em
dice lo que siento, en las noches
           A            C
cuando duermo, tu estaras
                     G
te llevare siempre tatuada
             Em          A
como un sello de mi alma
C                    D
no digas nada y adios

4----0-----------
5--2---2--0------
6-----------2--3-

G                      D   Em
Cuantas veces te vi despertar

cuantas veces me viste llorar
  Am            C
puedes creer que va a acabar
  G                      D   Em
el disco ha dejado de sonar

ya no queda nada que tomar
  Am            C
nos va a doler hay que aguantar

  Am
Nunca quise que saliera mal
  F
y aunque no me vuelva abrazar
  Am
y no vuelva a verte nunca mas
  D
tu estaras

CORO....(X2)
G,D,Em,C,Am,C
Suggest correction
Give kudos to tab author, rate the tab!
1 2 3 4 5
comments
print report bad tab
guest
You may want to rate the tab now too:
select rating
Wanna post a correction for this tab? Suggest correction