Oops, an error
Loading. Please wait.

Estarás Tab

version 2
version 2

Whole song

10 views 1 this week
no commentswrite comment
1 2 3 4 5
3 more votes to show rating
add to favorites
launch autoscroll
font size
0
reset
how to read this tab
guitar tuner
×
Best way to learn
"Estarás"
Autoscroll
slow
fast
+/-
esc
set tempo
stop
aki esta esta correccion de este solo.
saludos desde puebla.

e|----------------------------------------------------------
b|---------11b----11----12----11----12-11-------------------
g|----13/------------13----13----13-------11v---------------
D|-14-------------------------------------------------------
A|----------------------------------------------------------
E|----------------------------------------------------------

e|-12-----12/14-16-14-16-14-14-12-16-14-12----12------------
b|-14b-14----------------------------------14---------------
g|----------------------------------------------------------
D|----------------------------------------------------------
A|----------------------------------------------------------
E|----------------------------------------------------------

e|----------------------------------------------------------
b|----------------------------------------------------------
g|--------12----12----12-----12----14-12-------14-12--------
D|-----14----14----14----14b----14-------14-12-------14-----
A|-14b------------------------------------------------------
E|----------------------------------------------------------
Suggest correction
Give kudos to tab author, rate the tab!
1 2 3 4 5
comments
print report bad tab
guest
You may want to rate the tab now too:
select rating
Wanna post a correction for this tab? Suggest correction