Oops, an error
Loading. Please wait.

La Mujer Que No Soñe Tab

47 views 1 this week
no commentswrite comment
1 2 3 4 5
3 more votes to show rating
add to favorites
launch autoscroll
font size
0
reset
how to read this tab
guitar tuner
Autoscroll
slow
fast
+/-
esc
set tempo
stop
Help us to improve Ultimate-Guitar.com Take our survey!
×
Que tal, pues ahora si esta es la buena! Esta cancion ya la habia
mandado antes pero aun estaban mal algunos acordes... gracias por
su comprension jaja

INTRO:  A#   D*   Gm   Eb                       D* ||-1-||
                                                   ||-3-||
A#                                                 ||-2-||
La de lentes, la pasada de moda;                   ||-2-||
      F                Gm                          ||-0-||
[ch]A Aburrida, LA[/ch] intelectual;                       ||-x-||
D#                                        A#
La que prefiere una biblioteca a una discoteca...
F                Gm
Es la que me conquistó.


A#
La que todos tachan de fea,
         F                  Gm
Y en el metro no le ceden lugar
         D#          A#
La que es mas que una presea para enseñar...


D#          F            A#
Jamás será modelo de televisión
D#                   F               A#
Porque aun no hacen anuncios para el corazón.


(AQUI ENTRA EN QUINTAS CON DISTOR)
D#                  F                        A#
Es algo más que apariencia, su belleza es por dentro
D#                  F                        A#
Sigue apuntando sus sueños hacia el firmamento
D D#            F                  G    F     D#
He venido a parar con la mujer que no soñé jamás
F
Pero también jamás
         A#    D#  F
Fui tan feliz...

A# D# F


A#
La que ya no se pinta la boca
     F              Gm
Defraudada de coquetear
D#                                  A#
La que es más que una aguja para enhebrar...

D#             F                   A#
Su belleza no suele pintarla el espejo
D#             F                   A#
Porque sólo el amor percibe su reflejo.

D#                  F                        A#
Es algo más que apariencia, su belleza es por dentro
D#                  F                        A#
Sigue apuntando sus sueños hacia el firmamento
D D#            F                  G    F     Eb
He venido a parar con la mujer que no soñé jamás
F
Pero también jamás
         A#    D#  F
Fui tan feliz...
         A#    D#  F
Fui tan feliz...

 Mick Marcey!!

e||---------------------||
B||---------------------||
G||---------------------||
D||-8~-8~-8-8-8---------||
A||-------------10-8t-t-|| ----> aquí es 3 veces bajar el
E||---------------------||         tono con el tremolo.

e||-------------------------------------------||
B||-------------------------------------------||
G||------------5--5-5-5-5-3-5-5^7~-5^7r5p3-3~-||
D||-8--8-8-8-8--------------------------------||
A||-------------------------------------------||
E||-------------------------------------------||

e||-------------------------------------------------------||
B||-------------------------------------------------------||
G||-----------------5--5-5-5-5-3-5-3-5^7-5^7r-3-5-3----3~-||
D||-/8--8-8-8-8-8-8----------------------------------5----||
A||-------------------------------------------------------||
E||-------------------------------------------------------||

ESTE ULTIMO SE TOCA MIENTRAS CANTA ' ES UNA ESTRELLA FUGAZ'

e||---------------------------------||
B||---------------------------------||
G||-------------------------10/(0)--||
D||-------------10~---------10/(0)--||
A||-13-13-10h12-------8-8-8--8/(0)--||
E||---------------------------------||


D#                  F                        A#
Es algo más que apariencia, su belleza es por dentro
D#                  F                        A#
Sigue apuntando sus sueños hacia el firmamento
D D#            F                  G    F     D#
He venido a parar con la mujer que no soñé jamás
F
Pero también jamás... yeah!
                 A#    D#  F
Fui tan, fui tan feliz...
         A#    D#  F
Fui tan feliz...

Gracias...
Suggest correction
Give kudos to tab author, rate the tab!
1 2 3 4 5
comments
print report bad tab
guest
You may want to rate the tab now too:
select rating
Wanna post a correction for this tab? Suggest correction