Oops, an error
Loading. Please wait.

No Podrás Bass

version 1
version 1

Whole song

Interactive

164 views 1 this week
no commentswrite comment
1 2 3 4 5
3 more votes to show rating
add to favorites
launch autoscroll
font size
0
reset
guitar tuner
×
Best way to learn
"No Podrás"
Autoscroll
slow
fast
+/-
esc
set tempo
stop
Afinación: 5 cuerdas: B, E, A, D, G

Intro guitarra
Entra bajo

Intro (x2)
G|-----------------------------------|
D|-----------------------------------|
A|---------------3-333333------------|
E|----555-----333--------5-5555h6p5-3|
B|5555---3-333-----------------------|

Verso (x2)
G|-----------------------------------|
D|-----------------------------------|
A|---------------33333333------------|
E|----555-----333--------555555h6p5-3|
B|5555---33333-----------------------|

G|--------------------------------|
D|--------------------------------|
A|---------------33333333---------|
E|----555-----333--------55555555-|
B|5555---33333--------------------|

Puente
G|----------------------------------|
D|----------------------------------|
A|---1-1-----1-1-----1-1-----1-1----|
E|3-3-3-313-3-3-313-3-3-313-3-3-31--|
B|----------------------------------|

Precoro (x2)
 (Cada momento...)
G|-----------------|
D|-----------------|
A|-----------------|
E|3333333333333333-|
B|-----------------|

G|------------------------|
D|------------------------|
A|------------------------|
E|333333333332222---------|
B|---------------55555555-|

G|-------------------------|
D|-------------------------|
A|--------5555555555555555-|
E|55555555-----------------|
B|-------------------------|
Coro

(No podrás olvidar...)

G|------------------------|
D|------------------------|
A|33333333333333332222222-|
E|------------------------|
B|------------------------|

G|---------------------------------|_
D|---------------------------------| \
A|7-7-5-5-3-3333333333333332222222-|   (x2)
E|---------------------------------| /
B|---------------------------------|-

G|-------------------------|
D|-------------------------|
A|7-7-5-5-3-3333335-555555-|
E|-------------------------|
B|-------------------------|

Puente
G|----------------------------------|
D|----------------------------------|
A|---1-1-----1-1-----1-1-----1-1----|
E|3-3-3-313-3-3-313-3-3-313-3-3-31--|
B|----------------------------------|

Solo Guitarra
G|-----------------------------------|
D|-----------------------------------|
A|---------------3-322---------------|
E|----55------33------5535-5535h6p53-|
B|5------3---------------------------|

G|--------------------------------|
D|--------------------------------|
A|---------------3-333333---------|
E|----55------33---------55555555-|
B|5------3------------------------|

Puente
G|----------------------------------|
D|----------------------------------|
A|---1-1-----1-1-----1-1-----1-1----|
E|3-3-3-313-3-3-313-3-3-313-3-3-31--|
B|----------------------------------|

Precoro (x2)
 (Cada momento...)
G|-----------------|
D|-----------------|
A|-----------------|
E|3333333333333333-|
B|-----------------|

G|------------------------|
D|------------------------|
A|------------------------|
E|333333333332222---------|
B|---------------55555555-|

G|-------------------------|
D|-------------------------|
A|--------5555555555555555-|
E|55555555-----------------|
B|-------------------------|

Coro

(No podrás olvidar...)
G|------------------------|
D|------------------------|
A|33333333333333332222222-|
E|------------------------|
B|------------------------|

G|---------------------------------|_
D|---------------------------------| \
A|7-7-5-5-3-3333333333333332222222-|   (x2)
E|---------------------------------| /
B|---------------------------------|-

G|------------------------------------------|
D|------------------------------------------|
A|7-7-5-5-3-3333335-555555----1-1-----1-1---|
E|-------------------------3-3-3-313-3-3-31-|
B|------------------------------------------|

G|--------------------------|
D|--------------------------|
A|---------1212121212121212-|
E|55555555/-----------------|
B|--------------------------|

(No podrás olvidar...)
G|------------------------|
D|------------------------|
A|55555555555555554444444-|
E|------------------------|
B|------------------------|

G|---------------------------------|_
D|---------------------------------| \
A|9-9-7-7-5-5555555555555554444444-|   (x3)
E|---------------------------------| /
B|---------------------------------|-

G|--------------------------|
D|--------------------------|
A|9-9-7-7-5-------7---------|
E|------------------------5-|
B|--------------------------|
Suggest correction
Give kudos to tab author, rate the tab!
1 2 3 4 5
comments
print report bad tab
guest
You may want to rate the tab now too:
select rating
Wanna post a correction for this tab? Suggest correction