Oops, an error
Loading. Please wait.

No Podrás Tab

version 2
version 2

Whole song

Interactive

141 views 9 this week
no commentswrite comment
1 2 3 4 5
3 more votes to show rating
add to favorites
launch autoscroll
font size
0
reset
how to read this tab
guitar tuner
Autoscroll
slow
fast
+/-
esc
set tempo
stop
Help us to improve Ultimate-Guitar.com Take our survey!
×
bueno pues me costo un buen sacar esta chidisima rola,
la habrán interpretado muchos, pero ninguna tan chingona como esta.
   se la dedico a esas damas que nos hacen sufrir ha ha y
les dejo mi mail por dudas, aclaraciones y reclamos:
  purorock_pablo@

NOTA: el solo es como se tocaría sin distorción.

solo me faltaba agregar ke la afinacion de la segunda guitarra es
un tono mas arriba, si no la saben afinar un tono mas arriba,
solo corran las notas un traste... por ejemplo 5b a 6b y asi sucesivamente,

~ = dejar sonar
b = bend (subir de tono la nota)
V = vibrato
/ = deslizar


  Intro:

1a guitarra
e|----------------------------------------------------
b|----------------------------------------------------
g|----------------5-----------------------------------
D|-2--7-7-0---5-5-5---7--7-8-7-5-2--------------------
A|-2--7-7-0---5-5-3---7--7-8-7-5-2--------------------
E|-0--5-5-----3-3-----5--5-6-5-3-0--------------------

e|----------------------------------------------------
b|----------------------------------------------------
g|-------------5--------------------------------------
D|-7-7-0---5-5-5---7--7-8-7-5-2-----------------------
A|-7-7-0---5-5-3---7--7-8-7-5-2-----------------------
E|-5-5-----3-3-----5--5-6-5-3-0-----------------------

e|----------------------------------------------------
b|----------------------------------------------------
g|-------------5--------------------------------------
D|-7-7-0---5-5-5---7--7-8-7-5-2-----------------------
A|-7-7-0---5-5-3---7--7-8-7-5-2-----------------------
E|-5-5-----3-3-----5--5-6-5-3-0-----------------------

e|----------------------------------------------------
b|----------------------------------------------------
g|-------------5--------------------------------------
D|-7-7-0---5-5-5---7--7-8-7-5-2-----------------------
A|-7-7-0---5-5-3---7--7-8-7-5-2-----------------------
E|-5-5-----3-3-----5--5-6-5-3-0-----------------------


2da guitarra el SIG. riff entra
en el segundo 00:12 y 00:28

g|-----5b------------
D|-------------------
A|--5b---------------
E|-------------------


En esta parte no hay guitarra, pero se puede hacer el SIG. Bajeo.

VERSO 1

Guitarra 2
g|-------------------------------------------------------------
D|-------------------------------------------------------------
A|------------------------------------------------10-10-10-----
E|-0-0-0-0-0-0-0-0-0-5-5-5-5-5-5-5-5-5-10-10-10-10-------------

Guitarra 1
g|-------------------------------------------------------------
D|---------------------------------------------------7-8-7-5-2-
A|---------------------------------------------------7-8-7-5-2-
E|---------------------------------------------------5-6-5-3-0-

 Tal vez te olvides de mi, tal vez me olvide de ti  o no!

Guitarra 2
g|-------------------------------------------------------------
D|-------------------------------------------------------------
A|------------------------------------------------10-10-10-----
E|-0-0-0-0-0-0-0-0-0-5-5-5-5-5-5-5-5-5-10-10-10-10-------------

Guitarra 1
g|-------------------------------------------------------------
D|---------------------------------------------------7-8-7-5-2-
A|---------------------------------------------------7-8-7-5-2-
E|---------------------------------------------------5-6-5-3-0-

  Pero esta ves aprendí, que no se debe mentir        no!

e|--------------------------------------------------
b|--------------------------------------------------
g|----------------------------5~---------------------
D|------7-7-0~------------5-5-5~-------------7------
A|------7-7-0~------------5-5-3~-------------7------
E|~-----5-5---------------3-3----------------5-------

  De una promesa vivi, hoy ya no puedo seguir

Guitarra 1
g|----------------------------------------------------------
D|-7-7-7-7--7-7--7-7-7-7--7-7--7-7-7-7--7-7--7-7-7-7--7-7---
A|-7-7-7-7--7-7--7-7-7-7--7-7--7-7-7-7--7-7--7-7-7-7--7-7---
E|-5-0-5-0--5-0--5-0-5-0--5-0--5-0-5-0--5-0--5-0-5-0--5-0---

Guitarra 2
g|----------------------------------------------------------
D|----------------------------------------------------------
A|-----------3-------------3-------------3-------------3----
E|-3-5-3-5-3---5-3/5-3-5-3---5-3/5-3-5-3---5-3/5-3-5-3---5--

    creyendo en tiiiiiiiiiii


Guitarra 1
g|------------------------7------------------
D|-7-7-7-7-7-7-7-7-7-7-7--7------------------
A|-7-7-7-7-7-7-7-7-7-7-7--5------------------
E|-5-5-5-5-5-5-5-5-5-5-5---------------------

Guitarra 2
g|-------------------------------------------
D|-------5-5---5---5---5---------------------
A|-----3-----3---3---3---3-------------------
E|-3/5---------------------5v----------------

VERSO 2

Guitarra 1
g|-------------------------------------7-7-7-7-7-7--
D|-2-2-2-2-2-2-2-2-2-2-2-2-2-7-7-7-7-7-7-7-7-7-7-7--
A|-2-2-2-2-2-2-2-2-2-2-2-2-2-7-7-7-7-7-5-5-5-5-5-5--
E|-0-0-0-0-0-0-0-0-0-0-0-0-0-5-5-5-5-5--------------

 Cada momento voy tropezando en desamor

Guitarra 2

e|-------------------------------------7-------7-------7----
b|-----------------------------------------7-------7---7----
g|-----------------------------------4---4---4---4---4-4----


Guitarra 1
g|-7-7-7---------------------5-5-5-5-5-5-5-5-5-5-5-5-5-5-5--
D|-7-7-7-5-5-5-5-5-5-5-5-5-5-5-5-5-5-5-5-5-5-5-5-5-5-5-5-5--
A|-5-5-5-5-5-5-5-5-5-5-5-5-5-3-3-3-3-3-3-3-3-3-3-3-3-3-3-3--
E|-------3-3-3-3-3-3-3-3-3-3--------------------------------

  Es que no queda nada entre tu y yo

Guitarra 1
g|-------------------------------------7-7-7-7-7-7--
D|-2-2-2-2-2-2-2-2-2-2-2-2-2-7-7-7-7-7-7-7-7-7-7-7--
A|-2-2-2-2-2-2-2-2-2-2-2-2-2-7-7-7-7-7-5-5-5-5-5-5--
E|-0-0-0-0-0-0-0-0-0-0-0-0-0-5-5-5-5-5--------------

 Si estoy llorando no es que te extrañe el corazón

Guitarra 2
e|-------------------------------------7-------7-------7----
b|-----------------------------------------7-------7---7----
g|-----------------------------------4---4---4---4---4-4----

Guitarra 1
g|-7-7-7---------------------5-5-5-5-5-5-5-5-5-5-5-5-5-5-5--
D|-7-7-7-5-5-5-5-5-5-5-5-5-5-5-5-5-5-5-5-5-5-5-5-5-5-5-5-5--
A|-5-5-5-5-5-5-5-5-5-5-5-5-5-3-3-3-3-3-3-3-3-3-3-3-3-3-3-3--
E|-------3-3-3-3-3-3-3-3-3-3--------------------------------

Es que a tu lado aprendí el dolor

Coro :

Guitarra 2
e|-10-------10-----10--------10-----10--------10-------- esto
b|------11-----11-------11------11-------11------11----- va sin
g|----8----8----------8----8-----------8----8----------- distorsión

Guitarra 1
g|-7-7-7-7-7-5-5-5-5-5-5-5-4-4-4-4----------7-7----5-------
D|-7-7-7-7-7-5-5-5-5-5-5-5-4-4-4-4---2-2----7-7----5-------
A|-5-5-5-5-5-3-3-3-3-3-3-3-2-2-2-2---2-2----5-5----3-------
E|-----------------------------------0-0-------------------

  No podrás olvidar que te ame  como  yo  nunca  imagine

Guitarra 2
e|-10-------10-----10--------10-----10--------10---------- esto
b|------11-----11-------11------11-------11------11------- va sin
g|----8----8----------8----8-----------8----8-------------distorsión

Guitarra 1
g|-7-7-7-7-7-5-5-5-5-5-5-5-4-4-4-4----------7-7----5-------
D|-7-7-7-7-7-5-5-5-5-5-5-5-4-4-4-4---2-2----7-7----5-------
A|-5-5-5-5-5-3-3-3-3-3-3-3-2-2-2-2---2-2----5-5----3-------
E|-----------------------------------0-0-------------------

  E s t A r e  en  tu  piel,    cada momento en donde estés

Guitarra 2
e|-10-------10-----10--------10-----10--------10---------- esto
b|------11-----11-------11------11-------11------11------- va sin
g|----8----8----------8----8-----------8----8------------- distorsión

Guitarra 1
g|-7-7-7-7-7-5-5-5-5-5-5-5-4-4-4-4----------7-7----5-------
D|-7-7-7-7-7-5-5-5-5-5-5-5-4-4-4-4---2-2----7-7----5-------
A|-5-5-5-5-5-3-3-3-3-3-3-3-2-2-2-2---2-2----5-5----3-------
E|-----------------------------------0-0-------------------


  Siempre  habrá  un  lugar,    algún  recuerdo que será

g|-7-7-7-7-7-7-7---
D|-7-7-7-7-7-7-7---
A|-5-5-5-5-5-5-5---
E|-----------------

  Un e t e r n o?.
Guitarra 1
g|----------------------------------------------------------
D|-7-7-7-7--7-7--7-7-7-7--7-7--7-7-7-7--7-7--7-7-7-7--7-7---
A|-7-7-7-7--7-7--7-7-7-7--7-7--7-7-7-7--7-7--7-7-7-7--7-7---
E|-5-0-5-0--5-0--5-0-5-0--5-0--5-0-5-0--5-0--5-0-5-0--5-0---

Guitarra 2
g|----------------------------------------------------------
D|----------------------------------------------------------
A|-----------3-------------3-------------3-------------3----
E|-3-5-3-5-3---5-3/5-3-5-3---5-3/5-3-5-3---5-3/5-3-5-3---5--

   Suspiraaar
SOLO :
           Minuto 2:06
Guitarra 1
g|-------------------5---------------------------------------------
D|-2---7-7--0---5-5--5---7-7-7-7--7-7--7-7-7-7--7-7--7-7-7-7--7-7--
A|-2---7-7--0---5-5--3---7-7-7-7--7-7--7-7-7-7--7-7--7-7-7-7--7-7--
E|-0---5-5------3-3------5-0-5-0--5-0--5-0-5-0--5-0--5-0-5-0--5-0--

Guitarra 2
e|----------------------------------------------------------------
b|-13b---13b-13b-14b-13b--13-11-----------------------------------
g|------------------------------13-10-12-10-10-8-8-6-8-10-8-6-8-12
D|----------------------------------------------------------------
A|----------------------------------------------------------------
E|-----------------------------------------------------------
      Minuto 2:14
Guitarra 1
g|-------------------5----------------------------------------
D|-2---7-7--0---5-5--5---7-7-7-7--7-7--7-7-7-7--7-7--7-7-7----
A|-2---7-7--0---5-5--3---7-7-7-7--7-7--7-7-7-7--7-7--7-7-7----
E|-0---5-5------3-3------5-0-5-0--5-0--5-0-5-0--5-0--5-0-5----

Guitarra 2
e|-10b---10b-10b----12-12-10-12-10-12-10----11-11-9-11-9-11-9--
b|---------------12----------------------12--------------------
g|-------------------------------------------------------------
D|-------------------------------------------------------------
A|-------------------------------------------------------------
E|-------------------------------------------------------------

Guitarra 1
g|----------------------------7-------
D|-7-7-7-7-7-7-7-7-7-7-7-7-7--7-------
A|-7-7-7-7-7-7-7-7-7-7-7-7-7--5-------
E|-5-0-5-0-5-0-5-0-5-0-5-0-5----------

Guitarra 2
e|------16-14-16-14-16-14-16-14v------
b|-14/16------------------------------
g|------------------------------------
D|------------------------------------
A|------------------------------------
E|------------------------------------
    Minuto 2:22
Guitarra 1
g|-------------------------------------------------------------
D|-------------------------------------------------------------
A|--------------3-------------3-------------3-------------3----
E|----3-5-3-5-3---5-3/5-3-5-3---5-3/5-3-5-3---5-3/5-3-5-3---5--

Guitarra 2
e|---------------------------------------------------------9-11-11b
b|-------------------------------------------------9-10-12---------
g|-13-10-12-10-10-8-8-6-8-10-8-6-8-12-------8-9-11-----------------
D|--------------------------------------11b------------------------
A|-----------------------------------------------------------------
E|-----------------------------------------------------------------


  Minuto 2:27
Guitarra 1
g|-------------------------------------------------
D|---------------5--5----5----5----5---------------
A|-------------3------3----3----3----3-------------
E|---------3/5---------------------------5v--------

Guitarra 2
e|-------18-----------17-----------16----------14v------
b|-18-16----19v-17-15----18v-16-14----17v-14-12---------
g|------------------------------------------------------

  FIN DEL SOLO?.

Guitarra 1
g|-------------------------------------7-7-7-7-7-7--
D|-2-2-2-2-2-2-2-2-2-2-2-2-2-7-7-7-7-7-7-7-7-7-7-7--
A|-2-2-2-2-2-2-2-2-2-2-2-2-2-7-7-7-7-7-5-5-5-5-5-5--
E|-0-0-0-0-0-0-0-0-0-0-0-0-0-5-5-5-5-5--------------

 Cada momento voy tropezando en desamor

Guitarra 2

e|-------------------------------------7-------7-------7----
b|-----------------------------------------7-------7---7----
g|-----------------------------------4---4---4---4---4-4----


Guitarra 1
g|-7-7-7---------------------5-5-5-5-5-5-5-5-5-5-5-5-5-5-5--
D|-7-7-7-5-5-5-5-5-5-5-5-5-5-5-5-5-5-5-5-5-5-5-5-5-5-5-5-5--
A|-5-5-5-5-5-5-5-5-5-5-5-5-5-3-3-3-3-3-3-3-3-3-3-3-3-3-3-3--
E|-------3-3-3-3-3-3-3-3-3-3--------------------------------

  Es que no queda nada entre tu y yo

Guitarra 1
g|-------------------------------------7-7-7-7-7-7--
D|-2-2-2-2-2-2-2-2-2-2-2-2-2-7-7-7-7-7-7-7-7-7-7-7--
A|-2-2-2-2-2-2-2-2-2-2-2-2-2-7-7-7-7-7-5-5-5-5-5-5--
E|-0-0-0-0-0-0-0-0-0-0-0-0-0-5-5-5-5-5--------------

 Si estoy llorando no es que te extrañe el corazón

Guitarra 2
e|-------------------------------------7-------7-------7----
b|-----------------------------------------7-------7---7----
g|-----------------------------------4---4---4---4---4-4----

Guitarra 1
g|-7-7-7---------------------5-5-5-5-5-5-5-5-5-5-5-5-5-5-5--
D|-7-7-7-5-5-5-5-5-5-5-5-5-5-5-5-5-5-5-5-5-5-5-5-5-5-5-5-5--
A|-5-5-5-5-5-5-5-5-5-5-5-5-5-3-3-3-3-3-3-3-3-3-3-3-3-3-3-3--
E|-------3-3-3-3-3-3-3-3-3-3--------------------------------

Es que a tu lado aprendí el d o l o r


Coro :

Guitarra 2
e|-10-------10-----10--------10-----10--------10----------    esto
b|------11-----11-------11------11-------11------11-------  va sin
g|----8----8----------8----8-----------8----8------------- distorsión

Guitarra 1
g|-7-7-7-7-7-5-5-5-5-5-5-5-4-4-4-4----------7-7----5-------
D|-7-7-7-7-7-5-5-5-5-5-5-5-4-4-4-4---2-2----7-7----5-------
A|-5-5-5-5-5-3-3-3-3-3-3-3-2-2-2-2---2-2----5-5----3-------
E|-----------------------------------0-0-------------------

  No podrás olvidar que te ame  como  yo  nunca  imagine

Guitarra 2
e|-10-------10-----10--------10-----10--------10---------- esto
b|------11-----11-------11------11-------11------11------- va sin
g|----8----8----------8----8-----------8----8------------- distorsión

Guitarra 1
g|-7-7-7-7-7-5-5-5-5-5-5-5-4-4-4-4----------7-7----5-------
D|-7-7-7-7-7-5-5-5-5-5-5-5-4-4-4-4---2-2----7-7----5-------
A|-5-5-5-5-5-3-3-3-3-3-3-3-2-2-2-2---2-2----5-5----3-------
E|-----------------------------------0-0-------------------

  E s t A r e  en  tu  piel,    cada momento en donde estés

Guitarra 2
e|-10-------10-----10--------10-----10--------10---------- esto
b|------11-----11-------11------11-------11------11------- va sin
g|----8----8----------8----8-----------8----8------------- distorsión

Guitarra 1
g|-7-7-7-7-7-5-5-5-5-5-5-5-4-4-4-4----------7-7----5-------
D|-7-7-7-7-7-5-5-5-5-5-5-5-4-4-4-4---2-2----7-7----5-------
A|-5-5-5-5-5-3-3-3-3-3-3-3-2-2-2-2---2-2----5-5----3-------
E|-----------------------------------0-0-------------------

  Siempre  habrá  un  lugar,    algún  recuerdo que será

g|-7-7-7-7-7-7-7---
D|-7-7-7-7-7-7-7---
A|-5-5-5-5-5-5-5---
E|-----------------

  Un e t e r n o?.
Guitarra 1
g|-----------------------------
D|-7-7-7-7--7-7--7-7-7-7--7-7--
A|-7-7-7-7--7-7--7-7-7-7--7-7--
E|-5-0-5-0--5-0--5-0-5-0--5-0--

Guitarra 2
g|-----------------------------
D|-----------------------------
A|-----------3-------------3---
E|-3-5-3-5-3---5-3/5-3-5-3---5-

   Suspiraaar

Guitarra 2
e|-10-------10-----10--------10-----10--------10---------- esto
b|------11-----11-------11------11-------11------11------- va sin
g|----8----8----------8----8-----------8----8-------------distorsión

Guitarra 1
g|-7-7-7-7-7-5-5-5-5-5-5-5-4-4-4-4----------7-7----5-------
D|-7-7-7-7-7-5-5-5-5-5-5-5-4-4-4-4---2-2----7-7----5-------
A|-5-5-5-5-5-3-3-3-3-3-3-3-2-2-2-2---2-2----5-5----3-------
E|-----------------------------------0-0-------------------

   uoooh uouoooo No podrás olvidar  que te ame eee

Guitarra 2
e|-10-------10-----10--------10-----10--------10---------- esto
b|------11-----11-------11------11-------11------11------- va sin
g|----8----8----------8----8-----------8----8------------- distorsión

Guitarra 1
g|-7-7-7-7-7-5-5-5-5-5-5-5-4-4-4-4----------7-7----5-------
D|-7-7-7-7-7-5-5-5-5-5-5-5-4-4-4-4---2-2----7-7----5-------
A|-5-5-5-5-5-3-3-3-3-3-3-3-2-2-2-2---2-2----5-5----3-------
E|-----------------------------------0-0-------------------

   Eeeeeeh eeeeh eeeeeeeeeee     eee

Guitarra 2
e|-10-------10-----10--------10-----10--------10---------- esto
b|------11-----11-------11------11-------11------11------- va sin
g|----8----8----------8----8-----------8----8------------- distorsión

Guitarra 1
g|-7-7-7-7-7-5-5-5-5-5-5-5-4-4-4-4----------7-7----5-------
D|-7-7-7-7-7-5-5-5-5-5-5-5-4-4-4-4---2-2----7-7----5-------
A|-5-5-5-5-5-3-3-3-3-3-3-3-2-2-2-2---2-2----5-5----3-------
E|-----------------------------------0-0-------------------

            Como yo nunca imagine eee

Guitarra 2
e|-10-------10-----10--------10-----10--------10---------- esto
b|------11-----11-------11------11-------11------11------- va sin
g|----8----8----------8----8-----------8----8------------- distorsión

Guitarra 1
g|-7-7-7-7-7-5-5-5-5-5-5-5-4-4-4-4----------7-7----5-------
D|-7-7-7-7-7-5-5-5-5-5-5-5-4-4-4-4---2-2----7-7----5-------
A|-5-5-5-5-5-3-3-3-3-3-3-3-2-2-2-2---2-2----5-5----3-------
E|-----------------------------------0-0-------------------

  Ieeeeeee eeeeeeeeee eeeee eeeeeeee

Guitarra 1
g|----------4------------------------5------
D|----------4---------2--------------5------
A|----------2---------2--------------3------
E|--------------------0---------------------

  Uuuuuuuuh uuuuuuuu uuaaaaaa uuuuuu uu
                                              Fin ????


agarren el ritmo en los arreglos, y suerte con la rola.
  saludos desde puebla..........
Suggest correction
Give kudos to tab author, rate the tab!
1 2 3 4 5
comments
print report bad tab
guest
You may want to rate the tab now too:
select rating
Wanna post a correction for this tab? Suggest correction