Oops, an error
Loading. Please wait.

No Podrás Bass

version 2
version 2

Whole song

Interactive

98 views 1 this week
no commentswrite comment
1 2 3 4 5
3 more votes to show rating
add to favorites
launch autoscroll
font size
0
reset
guitar tuner
×
Best way to learn
"No Podrás"
Autoscroll
slow
fast
+/-
esc
set tempo
stop
Entras despues de la guitarra
Intro x2
G|--------------------------------------------------------------|
D|--------------------------------------------------------------|
A|---------5-555-----3-3333333----------------------------------|
D|0000-555-------333-----------5-5555h6p5-3---------------------|

Verso x2
G|--------------------------------------------------------------|
D|--------------------------------------------------------------|
A|---------55555-----333333333----------------------------------|
D|0000-555------333------------555555h6p5-3---------------------|

G|--------------------------------------------------------------|
D|--------------------------------------------------------------|
A|---------55555-----333333333----------------------------------|
D|0000-555-------333-----------55555555-------------------------|

Puente
G|--------------------------------------------------------------|
D|--------------------------------------------------------------|
A|---1-1-----1-1-----1-1-----1-1--------------------------------|
D|3-3-3-313-3-3-313-3-3-313-3-3-313-----------------------------|

Precoro x2
G|--------------------------------------------------------------|
D|--------------------------------------------------------------|
A|--------------------------------------------------------------|
D|3333333333333333----------------------------------------------|

G|--------------------------------------------------------------|
D|--------------------------------------------------------------|
A|--------------------------------------------------------------|
D|3333333333332222-00000000-------------------------------------|

G|--------------------------------------------------------------|
D|--------------------------------------------------------------|
A|---------5555555555555555-------------------------------------|
D|55555555------------------------------------------------------|

Coro
G|--------------------------------------------------------------|
D|--------------------------------------------------------------|
A|33333333333333332222222222------------------------------------|
D|--------------------------------------------------------------|
(x2)
G|--------------------------------------------------------------|
D|--------------------------------------------------------------|
A|7-7-5-5-3-333333333333333322222222----------------------------|
D|--------------------------------------------------------------|

G|--------------------------------------------------------------|
D|--------------------------------------------------------------|
A|7-7-5-5-3-3333335-555555--------------------------------------|
D|--------------------------------------------------------------|

Puente

Solo guitarra
G|--------------------------------------------------------------|
D|--------------------------------------------------------------|
A|------5------3-333333-----------------------------------------|
D|0---55----33---------5555h6p5-3-------------------------------|

G|--------------------------------------------------------------|
D|--------------------------------------------------------------|
A|------5------3-333333-----------------------------------------|
D|0---55----33---------555555-----------------------------------|
Precoro x2
G|--------------------------------------------------------------|
D|--------------------------------------------------------------|
A|--------------------------------------------------------------|
D|3333333333333333----------------------------------------------|

G|--------------------------------------------------------------|
D|--------------------------------------------------------------|
A|--------------------------------------------------------------|
D|3333333333332222-00000000-------------------------------------|

G|--------------------------------------------------------------|
D|--------------------------------------------------------------|
A|---------5555555555555555-------------------------------------|
D|55555555------------------------------------------------------|

Coro
G|--------------------------------------------------------------|
D|--------------------------------------------------------------|
A|33333333333333332222222222------------------------------------|
D|--------------------------------------------------------------|
(x2)
G|--------------------------------------------------------------|
D|--------------------------------------------------------------|
A|7-7-5-5-3-333333333333333322222222----------------------------|
D|--------------------------------------------------------------|

G|--------------------------------------------------------------|
D|--------------------------------------------------------------|
A|7-7-5-5-3-3333335-555555----1-1-----1-1-----------------------|
D|-------------------------3-3-3-313-3-3-31---------------------|

G|--------------------------------------------------------------|
D|--------------------------------------------------------------|
A|---------1212121212121212-------------------------------------|
D|55555555/-----------------------------------------------------|

G|--------------------------------------------------------------|
D|--------------------------------------------------------------|
A|555555555555555544444444--------------------------------------|
D|--------------------------------------------------------------|
(x3)
G|--------------------------------------------------------------|
D|--------------------------------------------------------------|
A|9-9-7-7-5-555555555555555544444444----------------------------|
D|--------------------------------------------------------------|

G|--------------------------------------------------------------|
D|--------------------------------------------------------------|
A|9-9-7-7-5--------7--------------------------------------------|
D|--------------------------5-----------------------------------|
Suggest correction
Give kudos to tab author, rate the tab!
1 2 3 4 5
comments
print report bad tab
guest
You may want to rate the tab now too:
select rating
Wanna post a correction for this tab? Suggest correction