Oops, an error
Loading. Please wait.

Popurock Navideño Tab

version 2
version 2

Whole song

67 views 1 this week
no commentswrite comment
1 2 3 4 5
3 more votes to show rating
add to favorites
launch autoscroll
font size
0
reset
how to read this tab
guitar tuner
Autoscroll
slow
fast
+/-
esc
set tempo
stop
Help us to improve Ultimate-Guitar.com Take our survey!
×
Esta tablatura un amigo me la mando claro estaba mal y aqui esta pero ya
corregida-----feliz navidad-----espero que les guste
no se olviden de calificarla

Como ya saben despues de la bateria al inicio sigue un tapping
el cual no lo he trascribido por que es muy largo y laborioso
y no tiene caso pero despues de eso sigue lo mas importante
de esta cancion.....


|-10-10-10-10-10-12-10-----------|------------------|
|----------------------12--------|-10-12-10---------|
|-------------------------12-9-12|----------12-9----|
|--------------------------------|---------------12-|
|--------------------------------|------------------|
|--------------------------------|------------------|

|-----------------10-|
|-----------10-12----|
|---9-11-12----------|
|-12-----------------|
|--------------------|
|--------------------|

|-10-12-10-----------|------------------|-----|
|----------12--------|-10-12-10---------|-10b-|
|-------------12-9-12|----------12-9-12-|-----|
|--------------------|------------------|-----|
|--------------------|------------------|-----|
|--------------------|------------------|-----|

|-10-10-10-10-10-12-10-----------|------------------|
|----------------------12--------|-10-12-10---------|
|-------------------------12-9-12|----------12-9----|
|--------------------------------|---------------12-|
|--------------------------------|------------------|
|--------------------------------|------------------|

|-----------------10-|
|-----------10-12----|
|---9-11-12----------|
|-12-----------------|
|--------------------|
|--------------------|

|-10-12-10-----------|------------------|
|----------12--------|-10-12-10---------|
|-------------12-9-12|----------12-9-12-|
|--------------------|------------------|
|--------------------|------------------|
|--------------------|------------------|

|----------------------|-------|---------------|
|-----12-----12-----12-|-14-11-|-12-11h12------|
|-8-9----8-9----8-9----|-------|---------11-13-|
|----------------------|-------|---------------|
|----------------------|-------|---------------|
|----------------------|-------|---------------|

|-------------------------------|
|-12-11h12----------12----12----|
|----------10-11-12----13----11-|
|-------------------------------|
|-------------------------------|
|-------------------------------|

|----------------------|------|---------------| |---8----------|
|-----10-----10-----10-|-12-9-|-12-11h12------| |----11--------|
|-6-7----6-7----6-7----|------|---------11-13-| |------10------|x3
|----------------------|------|---------------| |-11-----11-11-|
|----------------------|------|---------------| |--------------|
|----------------------|------|---------------| |--------------|

|-10-10-10-10-10-12-10-----------|-----------------|
|----------------------12--------|-10-12-10--------|
|-------------------------12-9-12|---------12-9----|
|---- ---------------------------|--------------12-|
|--------------------------------|-----------------|
|--------------------------------|-----------------|

|-----------------10-|
|-----------10-12----|
|---9-11-12----------|
|-12-----------------|
|--------------------|
|--------------------|

|-10-12-10-----------|------------------|-----|
|----------12--------|-10-12-10---------|-10b-|
|-------------12-9-12|----------12-9-12-|-----|
|--------------------|------------------|-----|
|--------------------|------------------|-----|
|--------------------|------------------|-----|


|-10-10-10-10-10-12-10-----------|------------------|
|----------------------12--------|-10-12-10---------|
|-------------------------12-9-12|----------12-9----|
|--------------------------------|---------------12-|
|--------------------------------|------------------|
|--------------------------------|------------------|

|-----------------10-|
|-----------10-12----|
|---9-11-12----------|
|-12-----------------|
|--------------------|
|--------------------|


|-10-12-10-----------|------------------|
|----------12--------|-10-12-10---------|
|-------------12-9-12|----------12-9-12-|
|--------------------|------------------|
|--------------------|------------------|
|--------------------|------------------|


|-10-12-10----15-12-10-|-10-12-10-12-10-15-14-|-8-10-8---14-12-10-|
|----------12----------|----------------------|--------10---------|
|----------------------|----------------------|-------------------|
|----------------------|----------------------|-------------------|
|----------------------|----------------------|-------------------|
|----------------------|----------------------|-------------------|

|-10-12-10-12-10-12----10----|
|-------------------10b---10-|
|----------------------------|
|----------------------------|
|----------------------------|
|----------------------------|

|-10-12-10----15-12-10-|-10-12-10-12-10-15-14-|-8-10-8---14-12-10-|
|----------12----------|----------------------|--------10---------|
|----------------------|----------------------|-------------------|
|----------------------|----------------------|-------------------|
|----------------------|----------------------|-------------------|
|----------------------|----------------------|-------------------|

|-10-12-10-12-10-17-15-|
|----------------------|
|----------------------|
|----------------------|
|----------------------|
|----------------------|

|---------8-|-7-8-9-8-7------|-7-8-10-10-8-7-------8--------------------|
|-8------8--|-----------10-8-|---------------10-9-8----8-10-8---------8-|
|---9-10----|----------------|-----------------------9--------10-9-10---|
|-----------|----------------|------------------------------------------|
|-----------|----------------|------------------------------------------|
|-----------|----------------|------------------------------------------|

|---------8-|-7-8-9-9-8-7------|-7-8-10-10-8-7-------8-----------------|
|-8------8--|-------------10-8-|---------------10-9-8----8-10-8-6-4-2--|
|---9-10----|------------------|-----------------------9---------------|
|-----------|------------------|---------------------------------------|
|-----------|------------------|---------------------------------------|
|-----------|------------------|---------------------------------------|

|---------------|-----------------|----------------|------------------|
|---------------|-----------------|----------------|------------------|
|---------------|-----------------|----------------|------------------|
|---------------|-----------------|----------------|------------------|
|-3-3-5-3-2-0-0-|-0-5-5-7-5-3-2---|--7-7-8-7-5-3-0-|---0~~-5~~-2~~-3~~|
|---------------|---------------3-|-3--------------|-3----------------|

Esta es la ultima parte, despues de esto sigue un pequeño tapping
que se los quedare debiendo.....
|---------------------------------|
|---------------------------------|
|-------5-7b-7b-5-3-5-3-----------|
|-3-5-7---------------------------|
|---------------------------------|
|---------------------------------|


Cualquier comentario escribeme a cerebelo_8@
Suggest correction
Give kudos to tab author, rate the tab!
1 2 3 4 5
comments
print report bad tab
guest
You may want to rate the tab now too:
select rating
Wanna post a correction for this tab? Suggest correction