Oops, an error
Loading. Please wait.

Por Que Se Nos Murió Chords

version 2
version 2

Whole song

4 views 1 this week
no commentswrite comment
1 2 3 4 5
3 more votes to show rating
add to favorites
launch autoscroll
font size
0
reset
transpose
0
reset
display chords
guitar tuner
Autoscroll
slow
fast
+/-
esc
set tempo
stop
Help us to improve Ultimate-Guitar.com Take our survey!
×
He aki la intro:

E||-----0--------0--------0--|
B||--5-----5--4-----4--2-----|
G||--------------------------|
D||--------------------------|
A||--------------------------|
E||--------------------------|


--------0-----------0----|
--2--0-----0-----0-------|
--------------2----------|
-------------------------|
-------------------------|
-------------------------|


--------0--------0--0----|
-----0--------0-----0----|
--1-----------------1----|
-----------4--------2----|
--------------------2----|
--------------------0----|


VERSO
    E    F#m
camine
   A                      E    F#m
durante mucho tiempo y pense
      A                        E           F#m
que el mundo se movia sin mis pies y descubri
     A                         E    F#m
que tus secretos son parte de mi
     A                      E     F#m
con tus palabras recorde abril
A
ohhh


PRECORO
          C#                 A
mañana sabre en donde tu estas
        B         F#
y no te perdere jamas
         E          A
mañana sera un dia mas
      B
no me quieras engañar

CORO
          E             A
dime por que se nos murio
          D              A
toda esa magia entre tu y yo
          E             A
dime por que se te olvido
          D             A
que hubo algo entre los dos
      F#m
dime pooor queeeeeeee
    A(pausa)        E
por que se nos murio


VERSO
y espere que con el tiempo tu me dieras la razon
por que no tengo suerte en esto del amor
ohhh

PRECORO
CORO (x2)

F#m
dando vueltas en la cama
A
sin ti ya no queda nada
F#m
es ya de madrugada
B
me estas matando por dentro
por favoooooooor

CORO (x2)

otra forma de tocar el F#m, a mi gusto suena mejor asi:
E||-0-|
B||-0-|
G||-2-|
D||-2-|
A||-0-|
E||-2-|
Suggest correction
Give kudos to tab author, rate the tab!
1 2 3 4 5
comments
print report bad tab
guest
You may want to rate the tab now too:
select rating
Wanna post a correction for this tab? Suggest correction