Oops, an error
Loading. Please wait.

Quemándome De Amor Bass

version 1
version 1

Whole song

Interactive

94 views 1 this week
no commentswrite comment
1 2 3 4 5
3 more votes to show rating
add to favorites
launch autoscroll
font size
0
reset
guitar tuner
×
Best way to learn
"Quemándome De Amor"
Autoscroll
slow
fast
+/-
esc
set tempo
stop
Intro
G|------------------|     |-----|
D|------------------|(x2) |-----|
A|-3----------5-555-|     |-3---|
E|---3-5-55503------|     |---3-|

Verso
G|--------------------|
D|--------------------|(x3)
A|--------5555533-----|
E|-5555555-------3----|

G|----------------------------------|
D|----------------------------------|
A|----3-2-------------3-2-------5-5-|
E|-33-----5-555555533-----5-555-----|

G|--------------------|
D|--------------------|(x3)
A|--------5555533-----|
E|-5555555-------3----|

G|------------------------------------------|
D|------------------------------------------|
A|----3-2-------------3-2-5-555555555555555-|
E|-33-----5-555555533-----------------------|

Coro (x2)
G|---------------------------------|
D|---------------------------------|
A|--------5------------------------|
E|-3----57---------5----578-787875-|

Puente
G|-----------------|
D|-----------------|(x3)
A|------335----3---|
E|-5-------------3-|

G|----------| |-----|
D|----------| |-12/-|
A|-3?2---5--| |-----|
E|-------5--| |-----|

Verso
G|--------------------|
D|--------------------|(x3)
A|--------5555533-----|
E|-5555555-------3----|

G|------------------------------------------|
D|------------------------------------------|
A|----3-2-------------3-2-5-555555555555555-|
E|-33-----5-555555533-----------------------|

Coro (x2)
G|---------------------------------|
D|---------------------------------|
A|--------5------------------------|
E|-3----57---------5----578-787875-|

Puente
G|-----------------|
D|-----------------|(x3)
A|------335----3---|
E|-5-------------3-|

G|----------| |-----|
D|----------| |-----|
A|-3?2---5--| |-----|
E|-------5--| |-10/-|

Solo guitarra
G|------------------|
D|------------------|(x2)
A|--------3333332---|
E|-0000023--------5-|

G|----------------------------------| |-----| |-------|
D|----------------------------------| |-----| |-------|
A|--------3333333335555555555555555-| |-10/-| |-3---5-|
E|-0000023--------------------------| |-----| |-------|

Coro
G|---------------------------------|
D|---------------------------------|(x2)
A|--------5------------------------|
E|-3----57---------5----578-787875-|

G|---------------------------------|
D|---------------------------------|(x2)
A|--------5------------------------|
E|-3----57---------0------8-787875-|

G|---------------------------------|
D|---------------------------------|
A|--------5----5-5-----------------|
E|-3----57---------5----578-787875-|

G|--------------------------|
D|--------------------------|
A|--------5----5-5-3?2----5-|
E|-3----57---------------5--|
Suggest correction
Give kudos to tab author, rate the tab!
1 2 3 4 5
comments
print report bad tab
guest
You may want to rate the tab now too:
select rating
Wanna post a correction for this tab? Suggest correction