Oops, an error
Loading. Please wait.

Quemándome De Amor Tab

version 1
version 1

Whole song

Interactive

103 views 1 this week
no commentswrite comment
1 2 3 4 5
3 more votes to show rating
add to favorites
launch autoscroll
font size
0
reset
how to read this tab
guitar tuner
Autoscroll
slow
fast
+/-
esc
set tempo
stop
Help us to improve Ultimate-Guitar.com Take our survey!
×
A qui les dejo una transcripcion de una rola muy chida pero lo que
pasa es que
es que he mejorado una transcripcion que estaba con una sola
nota mal espero que les sirva.


e| -----------------------------------------------] x2
B| --1--1--1--1--1--1--1--0--3--3--3--3--3--3--0--]
G| --2--2--2--2--2--2--2--0--2--2--2--2--2--2--0--]
D| -----------------------------------------------]
A| -----------------------------------------------]
E| -----------------------------------------------]

e|----------------------------------------------]
B|----------------------------------------------]
G|----------------------------------------------]
D|--5-------------7---5-------------7---5-------]
A|--3-5--7-----5-5---3-5--7-----5-5---3-5-------]
E|----3--5---0-3--------3--5---0-3--------3-----]

NOTA:Siempre el las tabs. es la primera guitarra y en los acordes
es la segunda guitarra.


e|------------------------------|
B|------------------------------|
G|------------------------------|  x3
D|-------------------5-5---5----|
A|----7-7-7-7-7----5-7-7---3-5--|
E|----5-5-5-5-5--0-3---------3--|
 P.M. |----------------|

 Am                         D
No puedo estar en ningún lugar
 Am                             D
Ni con mis discos me siento en paz
 Am                                 D
Cualquier canción siempre habla de ti


e|----------------------------------|
B|----------------------------------|
G|----------------------------------|
D|-------5-4-2~-------5-4-2~---7-7--|
A|--5-5--3-2-0~--5-5--3-2-0~---5-5--|
E|--3-3----------3-3----------------|
  G                 D      C   D
Qué difícil es olvidar
    G                       D   D
No hay manera de regresar (no! no!)


e|------------------------------|
B|------------------------------|
G|------------------------------|  x3
D|-------------------5-5---5----|
A|----7-7-7-7-7----5-7-7---3-5--|
E|----5-5-5-5-5--0-3---------3--|
 P.M. |----------------|
    Am                   D   D D
Y poco a poco logras entrar
    Am              D       D D
En mi corazón de metal
  Am                     D   D  D
Ojos miel te voy a extrañar


e|-------------------------------------------|
B|-------------------------------------------|
G|-------------------------------------------|
D|-------5-4-2~-------5-4----7-7-7-7-7-7-7-7-|
A|--5-5--3-2-0~--5-5--3-2----5-5-5-5-5-5-5-5-|
E|--3-3----------3-3-------------------------|
  G                 D     Am
Qué difícil es olvidar
    G                  D        D D
No hay manera de regresar a ti baby


e|---------------------------------------------|
B|---------------------------------------------|
G|---------------------------------------------|  x2
D|-------------7~------------------------------|
A|---5~----7-9-5~---7~---7-9-10-9-10-9-10-9-7--|
E|---3~----5-7------5~---5-7-8--7-8--7-8--7-5--|

G
Tu jugaste con fuego
D
Encendiste mi corazón
Am                                          D
Ahora que no te tengo estoy quemándome de amor.
G
Tu jugaste con fuego
D
Encendiste mi corazón
Am                                          D
Ahora que no te tengo estoy quemándome de amor.

e|------------------------------|
B|------------------------------|
G|------------------------------|  x2
D|-------------------5-5---5----|
A|----7-7-7-7-7----5-7-7---3-5--|
E|----5-5-5-5-5--0-3---------3--|
 P.M. |----------------|


e|--------------------------------------3-----3---2--3-3-3--|
B|------------------------------------3-----3-----3--3-3-3--|
G|----------------------------------2-----0-----2----2-2-2--|
D|-------------------5-5--5-5-5-5---------------------------|
A|----7-7-7-7-7----5-7-7--7-7-7-7---------------------------|
E|----5-5-5-5-5--0-3----------------------------------------|
 P.M. |--------------------------|

Am           D  G D
Na nana nana
Am            D  G D
Na nana nana
Am            D    G D
Na nana nana

mismos ACORDES que en los anteriores,.

E------------------------------|
B|------------------------------|
G|------------------------------|  x3
D|-------------------5-5---5----|
A|----7-7-7-7-7----5-7-7---3-5--|
E|----5-5-5-5-5--0-3---------3--|
 P.M. |----------------|

Está tan roto mi corazón
Que no se puede pedir perdón
La llama existe, no se apagó

e|-------------------------------------------|
B|-------------------------------------------|
G|-------------------------------------------|
D|-------5-4-2~-------5-4----7-7-7-7-7-7-7-7-|
A|--5-5--3-2-0~--5-5--3-2----5-5-5-5-5-5-5-5-|
E|--3-3----------3-3-------------------------|

Qué difícil es olvidar
No hay manera de regresar a ti baby


e|---------------------------------------------|
B|---------------------------------------------|
G|---------------------------------------------|  x2
D|-------------7~------------------------------|
A|---5~----7-9-5~---7~---7-9-10-9-10-9-10-9-7--|
E|---3~----5-7------5~---5-7-8--7-8--7-8--7-5--|

Tú jugaste con fuego
Encendiste mi corazón
Ahora que no te tengo
Estoy quemándome de amor
Tu jugaste con fuego
Encendiste mi corazón
Ahora que no te tengo
Estoy quemándome de amor


e|------------------------------|
B|------------------------------|
G|------------------------------|  x2
D|-------------------5-5---5----|
A|----7-7-7-7-7----5-7-7---3-5--|
E|----5-5-5-5-5--0-3---------3--|
 P.M. |----------------|


e|--------------------------------------3-----3---2--3-3-3--|
B|------------------------------------3-----3-----3--3-3-3--|
G|----------------------------------2-----0-----2----2-2-2--|
D|-------------------5-5--5-5-5-5---------------------------|
A|----7-7-7-7-7----5-7-7--7-7-7-7---------------------------|
E|----5-5-5-5-5--0-3----------------------------------------|
 P.M. |--------------------------|

Nanananana
Nananananana
Nanananana

[/Coro]


[Solo]

e|---------------------------------7^-7^-------------------------|
B|--------------8^------------------------10-8--------------8^---|
G|--9-9-9--7-------9---9-9-9--7-----------------9-7-9--7-------9-|
D|-----------9------------------9------------------------9-------|
A|---------------------------------------------------------------|
E|---------------------------------------------------------------|


e|-7-10^-7-10^--7----------------------------------------|
B|----------------10-8-----------------------------------|
G|-----------------------------7-9-7------7-9-7----------|
D|------------------------7/9--------9-7--------9-7------|
A|-------------------------------------------------------|
E|-------------------------------------------------------|
                       /*-----rápido--------------*/


e|---------10-12-10--------10-12-10-------------8/10-10-10-|
B|--10/12-----------12-10-----------12-10------10/12-12-12-|
G|---------------------------------------------------------|
D|---------------------------------------------------------|
A|---------------------------------------------------------|
E|---------------------------------------------------------|
  /*--------------rápido------------------*/

e|-10/12-12-12---12/14-14-14---19^-19^---------------------|
B|-12/14-14-14---14/16-16-16-------------------------------|
G|---------------------------------------------------------|
D|---------------------------------------------------------|
A|---------------------------------------------------------|
E|---------------------------------------------------------|


<...-CORO-...> (x 3)

Gracias eso es todo espero que les sirva..._________________
Suggest correction
Give kudos to tab author, rate the tab!
1 2 3 4 5
comments
print report bad tab
guest
You may want to rate the tab now too:
select rating
Wanna post a correction for this tab? Suggest correction