Oops, an error
Loading. Please wait.

Quemándome De Amor Tab

version 2
version 2

Whole song

Interactive

35 views 1 this week
no commentswrite comment
1 2 3 4 5
3 more votes to show rating
add to favorites
launch autoscroll
font size
0
reset
how to read this tab
guitar tuner
Autoscroll
slow
fast
+/-
esc
set tempo
stop
Solo
Este esta 100% Correcto


e|---------------------------------7^-7^-------------------------|
B|--------------8^------------------------10-8--------------8^---|
G|--9-9-9--7-------9---9-9-9--7-----------------9-7-9--7-------9-|
D|-----------9------------------9------------------------9-------|
A|---------------------------------------------------------------|
E|---------------------------------------------------------------|


e|-7-10^-7-10^--7----------------------------------------|
B|----------------10-8-----------------------------------|
G|-----------------------------7-9-7------7-9-7----------|
D|------------------------7/9--------9-7--------9-7------|
A|-------------------------------------------------------|
E|-------------------------------------------------------|
                       /*-----rápido--------------*/


e|---------10-12-10--------10-12-10-------------8/10-10-10-|
B|--10/12-----------12-10-----------12-10------10/12-12-12-|
G|---------------------------------------------------------|
D|---------------------------------------------------------|
A|---------------------------------------------------------|
E|---------------------------------------------------------|
  /*--------------rápido------------------*/

e|-10/12-12-12---12/14-14-14---19^-19^---------------------|
B|-12/14-14-14---14/16-16-16-------------------------------|
G|---------------------------------------------------------|
D|---------------------------------------------------------|
A|---------------------------------------------------------|
E|---------------------------------------------------------|
Suggest correction
Give kudos to tab author, rate the tab!
1 2 3 4 5
comments
print report bad tab
guest
Wanna post a correction for this tab? Suggest correction