Oops, an error
Loading. Please wait.

Quemándome De Amor Tab

version 3
version 3

Whole song

Interactive

82 views 1 this week
no commentswrite comment
1 2 3 4 5
3 more votes to show rating
add to favorites
launch autoscroll
font size
0
reset
how to read this tab
guitar tuner
×
Best way to learn
"Quemándome De Amor"
Autoscroll
slow
fast
+/-
esc
set tempo
stop
Lo que sacó marcel, pero es tan huevón que nunca la escribiría.

Notación:

~ - Dejar sonar la nota
^ - Bend


[Intro] (con algun tipo de delay)


e|----------------------------------------------------|
B|----------------------------------------------------|
G|--5-(5)-(5)-(5)--4-(4)-(4)--7-(7)-(7)-(7)-(7)-(7)---|  x2
D|--5-(5)-(5)-(5)--5-(5)-(5)--7-(7)-(7)-(7)-(7)-(7)---|
A|----------------------------------------------------|
E|----------------------------------------------------|

e|---------------------------------------------|
B|---------------------------------------------|
G|---------------------------------------------|
D|--5-------------7~---5-------------7~---5----|
A|--3-5--7~-----5-5~---3-5--7~-----5-5~---3-5--|
E|----3--5~---0-3--------3--5~---0-3--------3--|

[/Intro]

[Verso]

e|------------------------------|
B|------------------------------|
G|------------------------------|  x3
D|-------------------5-5---5----|
A|----7-7-7-7-7----5-7-7---3-5--|
E|----5-5-5-5-5--0-3---------3--|
 P.M. |----------------|

No puedo estar en ningún lugar
Ni con mis discos me siento en paz
Cualquier canción siempre habla de ti

e|----------------------------------|
B|----------------------------------|
G|----------------------------------|
D|-------5-4-2~-------5-4-2~---7-7--|
A|--5-5--3-2-0~--5-5--3-2-0~---5-5--|
E|--3-3----------3-3----------------|

Qué difícil es olvidar
No hay manera de regresar (no! no!)

[/Verso]

[Verso]

e|------------------------------|
B|------------------------------|
G|------------------------------|  x3
D|-------------------5-5---5----|
A|----7-7-7-7-7----5-7-7---3-5--|
E|----5-5-5-5-5--0-3---------3--|
 P.M. |----------------|

Y poco a poco lograste entrar
En mi corazón de metal
Ojos miel, te voy a extrañar

e|-------------------------------------------|
B|-------------------------------------------|
G|-------------------------------------------|
D|-------5-4-2~-------5-4----7-7-7-7-7-7-7-7-|
A|--5-5--3-2-0~--5-5--3-2----5-5-5-5-5-5-5-5-|
E|--3-3----------3-3-------------------------|

Qué difícil es olvidar
No hay manera de regresar a ti baby

[/Verso]


[Coro]

e|---------------------------------------------|
B|---------------------------------------------|
G|---------------------------------------------|  x2
D|-------------7~------------------------------|
A|---5~----7-9-5~---7~---7-9-10-9-10-9-10-9-7--|
E|---3~----5-7------5~---5-7-8--7-8--7-8--7-5--|

Tú jugaste con fuego
Encendiste mi corazón
Ahora que no te tengo
Estoy quemándome de amor
Tu jugaste con fuego
Encendiste mi corazón
Ahora que no te tengo
Estoy quemándome de amor


e|------------------------------|
B|------------------------------|
G|------------------------------|  x2
D|-------------------5-5---5----|
A|----7-7-7-7-7----5-7-7---3-5--|
E|----5-5-5-5-5--0-3---------3--|
 P.M. |----------------|


e|--------------------------------------3-----3---2--3-3-3--|
B|------------------------------------3-----3-----3--3-3-3--|
G|----------------------------------2-----0-----2----2-2-2--|
D|-------------------5-5--5-5-5-5---------------------------|
A|----7-7-7-7-7----5-7-7--7-7-7-7---------------------------|
E|----5-5-5-5-5--0-3----------------------------------------|
 P.M. |--------------------------|

Nanananana
Nananananana
Nanananana

[/Coro]


[Verso]

e|------------------------------|
B|------------------------------|
G|------------------------------|  x3
D|-------------------5-5---5----|
A|----7-7-7-7-7----5-7-7---3-5--|
E|----5-5-5-5-5--0-3---------3--|
 P.M. |----------------|

Está tan roto mi corazón
Que no se puede pedir perdón
La llama existe, no se apagó

e|-------------------------------------------|
B|-------------------------------------------|
G|-------------------------------------------|
D|-------5-4-2~-------5-4----7-7-7-7-7-7-7-7-|
A|--5-5--3-2-0~--5-5--3-2----5-5-5-5-5-5-5-5-|
E|--3-3----------3-3-------------------------|

Qué difícil es olvidar
No hay manera de regresar a ti baby

[/Verso]


[Coro]

e|---------------------------------------------|
B|---------------------------------------------|
G|---------------------------------------------|  x2
D|-------------7~------------------------------|
A|---5~----7-9-5~---7~---7-9-10-9-10-9-10-9-7--|
E|---3~----5-7------5~---5-7-8--7-8--7-8--7-5--|

Tú jugaste con fuego
Encendiste mi corazón
Ahora que no te tengo
Estoy quemándome de amor
Tu jugaste con fuego
Encendiste mi corazón
Ahora que no te tengo
Estoy quemándome de amor


e|------------------------------|
B|------------------------------|
G|------------------------------|  x2
D|-------------------5-5---5----|
A|----7-7-7-7-7----5-7-7---3-5--|
E|----5-5-5-5-5--0-3---------3--|
 P.M. |----------------|


e|--------------------------------------3-----3---2--3-3-3--|
B|------------------------------------3-----3-----3--3-3-3--|
G|----------------------------------2-----0-----2----2-2-2--|
D|-------------------5-5--5-5-5-5---------------------------|
A|----7-7-7-7-7----5-7-7--7-7-7-7---------------------------|
E|----5-5-5-5-5--0-3----------------------------------------|
 P.M. |--------------------------|

Nanananana
Nananananana
Nanananana

[/Coro]


[Solo]

e|---------------------------------7^-7^-------------------------|
B|--------------8^------------------------10-8--------------8^---|
G|--9-9-9--7-------9---9-9-9--7-----------------9-7-9--7-------9-|
D|-----------9------------------9------------------------9-------|
A|---------------------------------------------------------------|
E|---------------------------------------------------------------|


e|-7-10^-7-10^--7----------------------------------------|
B|----------------10-8-----------------------------------|
G|-----------------------------7-9-7------7-9-7----------|
D|------------------------7/9--------9-7--------9-7------|
A|-------------------------------------------------------|
E|-------------------------------------------------------|
                       /*-----rápido--------------*/


e|---------10-12-10--------10-12-10-------------8/10-10-10-|
B|--10/12-----------12-10-----------12-10------10/12-12-12-|
G|---------------------------------------------------------|
D|---------------------------------------------------------|
A|---------------------------------------------------------|
E|---------------------------------------------------------|
  /*--------------rápido------------------*/

e|-10/12-12-12---12/14-14-14---19^-19^---------------------|
B|-12/14-14-14---14/16-16-16-------------------------------|
G|---------------------------------------------------------|
D|---------------------------------------------------------|
A|---------------------------------------------------------|
E|---------------------------------------------------------|

[/Solo]

[Coro]


Tú jugaste con fuego
Encendiste mi corazón
Ahora que no te tengo


e|----------------------------------------------------|
B|----------------------------------------------------|
G|----------------------------------------------------|
D|-5~--7~-------------7~------------------------------|
A|-3~--5~---5~----7-9-5~---7~---7-9-10-9-10-9-10-9-7--|
E|----------3~----5-7------5~---5-7-8--7-8--7-8--7-5--|


e|---------------------------------------------|
B|---------------------------------------------|
G|---------------------------------------------|  x5
D|-------------7~------------------------------|
A|---5~----7-9-5~---7~---7-9-10-9-10-9-10-9-7--|
E|---3~----5-7------5~---5-7-8--7-8--7-8--7-5--|


Estoy quemándome de amor
Tu jugaste con fuego
Encendiste mi corazón
Ahora que no te tengo
Estoy quemándome de amor

Tu jugaste con fuego
Encendiste mi corazón
Ahora que no te tengo
Estoy quemándome de amor

Tu jugaste con fuego
Encendiste mi corazón
Ahora que no te tengo
Estoy quemándome de amor

Nanananana
Nananananana
Nanananana
Tu jugaste con fuego
Nanananana
Nananananana
Nanananana
Encendiste mi corazón

Nanananana
Nananananana
Nanananana
Ahora que no te tengo
Nanananana
Nananananana
Nanananana
Estoy quemándome de amor

Nanananana
Nananananana
Nanananana


e|----------------------------3-----3---2---|
B|--------------------------3-----3-----3---|
G|------------------------2-----0-----2-----|
D|-------------7~---7-7---------------------|
A|---5~----7-9-5~---5-5---------------------|
E|---3~----5-7------------------------------|

[/Coro]
Suggest correction
Give kudos to tab author, rate the tab!
1 2 3 4 5
comments
print report bad tab
guest
You may want to rate the tab now too:
select rating
Wanna post a correction for this tab? Suggest correction