Oops, an error
Loading. Please wait.

Ya Lo Veía Venir Tab

version 2
version 2

Whole song

Interactive

77 views 3 this week
no commentswrite comment
1 2 3 4 5
3 more votes to show rating
add to favorites
×
Save as Personal and add changes to this tab that will be seen only by you. Learn more ›
×
You can save this tab as Personal to edit and correct it or add notes. All changes will be seen only by you. Learn more »
save as personal
new!
launch autoscroll
font size
0
reset
how to read this tab
guitar tuner
Autoscroll
slow
fast
+/-
esc
set tempo
stop
Me mata esta canción!
Está fácil, cualquier duda, ahi está mi mail...

Intro

*Empieza la batería

La guitarra 1 comienza así:
PM******************************************
e|-------------------------------------------|
B|-------------------------------------------|
G|-------------------------------------------|
D|-77777777777777777777777777777777777777777-|
A|-55555555555555555555555555555555555555555-|
E|-------------------------------------------|

*El bajo empieza, junto con los gemidos de bryan, la gtr. 1
sigue haciendo lo mismo.

La guitarra 2 entra aquí:
e|------------------------------------|    e|---------|
B|------------------------------------|    B|---------|
G|-77---------5-4-5--77---------------|    G|--5~--4~-|
D|-77---------5-4-5--77---------------|    D|--5~--4~-|
A|-55---------3-2-3--55---------------|    A|--3~--2~-|
E|------------------------------------|    E|---------|

La guitarra 1 sigue con su PM:
PM************************************
e|-------------------------------------|   e|---------|
B|-------------------------------------|   B|---------|
G|-------------------------------------|   G|--5~--4~-|
D|-77777777777777777777777777777777777-|   D|--5~--4~-|
A|-55555555555555555555555555555555555-|   A|--3~--2~-|
E|-------------------------------------|   E|---------|

Verso 1
Se? Que a mi puerta ha llamado el amor, es que lo
nuestro no tiene solución. Si? Ya lo veía venir.
Gtr.1 (aquí la 2 no hace nada)
PM******************* ********* *********
e|--------------------------------------------|
B|--------------------------------------------|
G|--------------------------------------------|
D|-777777777777777777-------------------------|
A|-555555555555555555-777777777-555555555-----|
E|--------------------555555555-333333333-----|


venir?
Gtr.1
PM*****************************************
e|------------------------------------------|
B|------------------------------------------|
G|------------------------------------------|
D|-7777777777777777777777777777777777777777-|
A|-5555555555555555555555555555555555555555-|
E|------------------------------------------|

Gtr.2
e|------------------------------------------|
B|-----8------------------------------------|
G|-77--7--77--------------------------------|
D|-77--5--77--------------------------------|
A|-55-----55--------------------------------|
E|------------------------------------------|

Se? Que la culpa no es tuya, es de los dos,
pero hay un bloque de hielo entre  tú y yo.
Si? Ya lo veía venir.
Gtr.1 (también aquí la 2 no hace nada)
PM******************* ********* *********
e|--------------------------------------------|
B|--------------------------------------------|
G|--------------------------------------------|
D|-777777777777777777-------------------------|
A|-555555555555555555-777777777-555555555-----|
E|--------------------555555555-333333333-----|


venir?
Gtr.1
PM*****************************************
e|------------------------------------------|
B|------------------------------------------|
G|------------------------------------------|
D|-7777777777777777777777777777777777777777-|
A|-5555555555555555555555555555555555555555-|
E|------------------------------------------|

Gtr.2
e|------------------------------------------|
B|-----8------------------------------------|
G|-77--7--77--------------------------------|
D|-77--5--77--------------------------------|
A|-55-----55--------------------------------|
E|------------------------------------------|

Pre-coro (aquí las 2 guitarras hacen lo mismo)
No es que sea mala onda, pero te lo voy a decir.
e|------------------------------------------|
B|------------------------------------------|
G|------------------------------------------|
D|-2~---------5~---------9~-----------------|
A|-2~---------5~---------9~-----------------|
E|-0~---------3~---------7~-----------------|

De alguien me he enamorado, y con mas fuerza
que de ti.
e|------------------------------------------|
B|------------------------------------------|
G|------------------------------------------|
D|-2~---------5~---------9/-7/-5~-----------|
A|-2~---------5~---------9/-7/-5~-----------|
E|-0~---------3~---------7/-5/-3~-----------|

Gtr.1 & 2
e|------------------------------------------|
B|------------------------------------------|
G|------------------------------------------|
D|-----777777x------------------------------|
A|---77777777x------------------------------|
E|-5555555555x------------------------------|

Ya lo veía venir?
Gtr.1
PM***************
e|-------------------------------------------|
B|-------------------------------------------|
G|--------------------------77777777777------|
D|-777777777777777777777777777777777777------|
A|-555555555555555555555555555555555555------|
E|-------------------------------------------|


Coro (las 2 guitarras)
Si! Ya lo veía venir?
    PM**** ** ** *   ***** ** **
e|------------------------------------------|
B|------------------------------------------|
G|-7------7--7--7---------------------------|
D|-777777777777777-7------7--7--7-----------|
A|-555555555555555-777777777777777----------|
E|-----------------555555555555555----------|

Y me bastó solo una noche, para besarnos en el coche.
    PM**** ** ** *   ***** ** **
e|------------------------------------------|
B|------------------------------------------|
G|------------------------------------------|
D|-2------2-2---2--5------5--5--5-----------|
A|-222222222222222-555555555555555----------|
E|-000000000000000-333333333333333----------|

Si Y no me acordé de ti?
    PM**** ** ** *   ***** ** **
e|------------------------------------------|
B|------------------------------------------|
G|-7------7--7--7---------------------------|
D|-777777777777777-7------7--7--7-----------|
A|-555555555555555-777777777777777----------|
E|-----------------555555555555555----------|

Te juro no quería hacerlo, pero al final te puse el cuerno.
    PM**** ** ** *   ***** ** **
e|------------------------------------------|
B|------------------------------------------|
G|------------------------------------------|
D|-2------2-2---2--5------5--5--5-----------|
A|-222222222222222-555555555555555----------|
E|-000000000000000-333333333333333----------|

Si? Ya lo veía venir?
    PM**** ** ** *
e|-------------------------------------------|
B|-------------------------------------------|
G|-------------------------------------------|
D|-2------2-2---2---5x-----------------------|
A|-222222222222222--5x-----------------------|
E|-000000000000000--3x-----------------------|

Break
Gtr.2
e|-------------------------------------|
B|-------------------------------------|
G|-77---------5-4-5--------------------|   x3
D|-77---------5-4-5--------------------|
A|-55---------3-2-3--------------------|
E|-------------------------------------|

Gtr.1
PM************************************
e|-------------------------------------|
B|-------------------------------------|
G|-------------------------------------|   x3
D|-77777777777777777777777777777777777-|
A|-55555555555555555555555555555555555-|
E|-------------------------------------|

Gtr.3 (solo entra aquí)
e|--------10--------10-----------------|
B|-----10--------10--------10----------|
G|-12b-------12b-------12b-------------|
D|-------------------------------------|
A|-------------------------------------|
E|-------------------------------------|

Gtr.2
e|-------------------------------------|   e|---------|
B|-------------------------------------|   B|---------|
G|-77----------------------------------|   G|--5~--4~-|
D|-77----------------------------------|   D|--5~--4~-|
A|-55----------------------------------|   A|--3~--2~-|
E|-------------------------------------|   E|---------|

Gtr.1
e|-------------------------------------|   e|---------|
B|-------------------------------------|   B|---------|
G|-------------------------------------|   G|--5~--4~-|
D|-7777777777777777777777777-----------|   D|--5~--4~-|
A|-5555555555555555555555555-----------|   A|--3~--2~-|
E|-------------------------------------|   E|---------|

Verso 2
*La primer parte de este verso lleva puro bajo y arreglos de
  sintetizador XD

D
Se? que me he portado muy mal y me encantó, ya no me
           A
llames lo nuestro se acabó.
G                     D
Si, es el amor juvenil

Aquí la guitarra 2 con poca distorsión hace esto (se puede
hacer octavado o con el acorde)
  Se? que en unos causa terror y decepción, a mi me encanta
sentir el descontrol.  Si. Es el amor juvenil.
e|------------------------------------------|
B|------------------------------------------|
G|-7-7-6-7-7-7-7-6-7-7-7--------------------|  x6
D|-7-7-7-7-7-7-7-7-7-7-7--------------------|
A|-5-5-5-5-5-5-5-5-5-5-5--------------------|
E|------------------------------------------|

Pre-coro (aquí las 2 guitarras hacen lo mismo)
Regrésame las fotos y los discos de Moderatto.
e|------------------------------------------|
B|------------------------------------------|
G|------------------------------------------|
D|-2~---------5~---------9~-----------------|
A|-2~---------5~---------9~-----------------|
E|-0~---------3~---------7~-----------------|

Se que vas a decir que soy de lo peor y que soy un asco.
qUe p0Ka mAdrE!!
e|------------------------------------------|
B|------------------------------------------|
G|------------------------------------------|
D|-2~---------5~---------9/-7/-5~-----------|
A|-2~---------5~---------9/-7/-5~-----------|
E|-0~---------3~---------7/-5/-3~-----------|

Gtr.1 & 2
e|------------------------------------------|
B|------------------------------------------|
G|------------------------------------------|
D|-----777777x------------------------------|
A|---77777777x------------------------------|
E|-5555555555x------------------------------|

Ya lo veía venir?
Gtr.1
PM***************
e|-------------------------------------------|
B|-------------------------------------------|
G|--------------------------77777777777------|
D|-777777777777777777777777777777777777------|
A|-555555555555555555555555555555555555------|
E|-------------------------------------------|

Coro (las 2 guitarras)
Si! Ya lo veía venir?
    PM**** ** ** *   ***** ** **
e|------------------------------------------|
B|------------------------------------------|
G|-7------7--7--7---------------------------|
D|-777777777777777-7------7--7--7-----------|
A|-555555555555555-777777777777777----------|
E|-----------------555555555555555----------|

Y me bastó solo una noche, para besarnos en el coche.
    PM**** ** ** *   ***** ** **
e|------------------------------------------|
B|------------------------------------------|
G|------------------------------------------|
D|-2------2-2---2--5------5--5--5-----------|
A|-222222222222222-555555555555555----------|
E|-000000000000000-333333333333333----------|

Si? Y no me acordé de ti?
    PM**** ** ** *   ***** ** **
e|------------------------------------------|
B|------------------------------------------|
G|-7------7--7--7---------------------------|
D|-777777777777777-7------7--7--7-----------|
A|-555555555555555-777777777777777----------|
E|-----------------555555555555555----------|

Te juro no quería hacerlo, pero al final te puse el cuerno.
    PM**** ** ** *   ***** ** **
e|------------------------------------------|
B|------------------------------------------|
G|------------------------------------------|
D|-2------2-2---2--5------5--5--5-----------|
A|-222222222222222-555555555555555----------|
E|-000000000000000-333333333333333----------|

Si? Ya lo veía venir?
PM  **** * *** *  **** ** ** * ** * **
e|------------------------------------------|
B|------------------------------------------|
G|-------------------------------7-7--------|
D|-2----2-2---2--5----5--5--5--7777777------|
A|-2222222222222-5555555555555-5555555------|
E|-0000000000000-3333333333333--------------|

Bridge
*La gtr.1 va sin distor.
Sabes lo nuestro? No iba bien?
Gtr.1
   G   D       A
e|-3~~-2-3p2--------------------------------|
B|-3~~-3~---3--2~~--------------------------|
G|-0~~-2~~-----2~~--------------------------|
D|-0~~-0~~-----2~~--------------------------|
A|-2~~---------0~~--------------------------|
E|-3~~--------------------------------------|

Gtr.2
   G   D       A
e|------------------------------------------|
B|------------------------------------------|
G|------------------7--7/5------------------|
D|------------------x--x/x------------------|
A|------------------5--5/3------------------|
E|------------------------------------------|

        No lo hagas difícil
Gtr.1
   E   G   D
e|-----3~~-2-3p2----------------------------|
B|-----3~~-3~---3---------------------------|
G|-----0~~-2~-------------------------------|
D|-2---0~~-0~-------------------------------|
A|-2---2~~----------------------------------|
E|-0---3~~----------------------------------|

Gtr.2
   E   G   D
e|------------------------------------------|
B|------------------------------------------|
G|---------7~-------------------------------|
D|-2---5~~-7~-------------------------------|
A|-2---5~~-5~-------------------------------|
E|-0---3~~----------------------------------|

Dame un beso y dime adiós. Pues si lo pienso dos, tres veces,
me arrepiento así soy yo.
Gtr.1&2
PM***************************
        F#
e|------------------------------------------|
B|------------------------------------------|
G|------------------------------------------|
D|-----------------------------5555x--------|
A|-4444444444444444-555555555555555x--------|
E|-2222222222222222-333333333333333x--------|

Coro (las 2 guitarras)
Si! Ya lo veía venir?
    PM**** ** ** *   ***** ** **
e|------------------------------------------|
B|------------------------------------------|
G|-7------7--7--7---------------------------|
D|-777777777777777-7------7--7--7-----------|
A|-555555555555555-777777777777777----------|
E|-----------------555555555555555----------|

Y me bastó solo una noche, para besarnos en el coche.
    PM**** ** ** *   ***** ** **
e|------------------------------------------|
B|------------------------------------------|
G|------------------------------------------|
D|-2------2-2---2--5------5--5--5-----------|
A|-222222222222222-555555555555555----------|
E|-000000000000000-333333333333333----------|

Si, si, si, si? Y no me acordé de ti?
Gtr.1
    PM**** ** ** *   ***** ** **
e|------------------------------------------|
B|------------------------------------------|
G|-7------7--7--7---------------------------|
D|-777777777777777-7------7--7--7-----------|
A|-555555555555555-777777777777777----------|
E|-----------------555555555555555----------|

Gtr.2 (con poco distor)
e|------------------------------------------|
B|------------------------------------------|
G|-7-7-6-7-7-7-7-6-7-7-7--------------------| x2
D|-7-7-7-7-7-7-7-7-7-7-7--------------------|
A|-5-5-5-5-5-5-5-5-5-5-5--------------------|
E|------------------------------------------|

Te juro no quería hacerlo, pero al final te puse el cuerno.
Gtr.1
    PM**** ** ** *   ***** ** **
e|------------------------------------------|
B|------------------------------------------|
G|------------------------------------------|
D|-2------2-2---2--5------5--5--5-----------|
A|-222222222222222-555555555555555----------|
E|-000000000000000-333333333333333----------|

Gtr.2 (con poco distor)
e|------------------------------------------|
B|------------------------------------------|
G|-7-7-6-7-7-7-7-6-7-7-7--------------------| x2
D|-7-7-7-7-7-7-7-7-7-7-7--------------------|
A|-5-5-5-5-5-5-5-5-5-5-5--------------------|
E|------------------------------------------|

Si? Ya lo veía venir? (ya lo veía venir?)
Gtr.1
PM  **** * *** *  **** ** ** * ** * **
e|------------------------------------------|
B|------------------------------------------|
G|-------------------------------7-7--------|
D|-2----2-2---2--5----5--5--5--7777777------|
A|-2222222222222-5555555555555-5555555------|
E|-0000000000000-3333333333333--------------|

Gtr.2 (con poco distor)
e|------------------------------------------|
B|------------------------------------------|
G|-7-7-6-7-7-7-7-6-7-7-7--------------------| x2
D|-7-7-7-7-7-7-7-7-7-7-7--------------------|
A|-5-5-5-5-5-5-5-5-5-5-5--------------------|
E|------------------------------------------|

       SI. Ya lo veía venir.
Gtr.1&2
e|------------------------------------------|
B|------------------------------------------|
G|------------------------------------------|
D|------2~~--5x-----------------------------|
A|------2~~--5x-----------------------------|
E|------0~~--3x-----------------------------|

saludos! XD
Suggest correction
Give kudos to tab author, rate the tab!
1 2 3 4 5
comments
print report bad tab
guest
Wanna post a correction for this tab? Suggest correction