Oops, an error
Loading. Please wait.

Sólo Tú Tab

69 views 1 this week
no commentswrite comment
1 2 3 4 5
3 more votes to show rating
add to favorites
launch autoscroll
font size
0
reset
how to read this tab
guitar tuner
Autoscroll
slow
fast
+/-
esc
set tempo
stop
Help us to improve Ultimate-Guitar.com Take our survey!
×
Módulos: Solo Tú
Intro:
  Em u u  u u u u u u u u u u u u u u||
E|-0---------------------------------||
B|-0-2>3--5-6>5>3>5-3-1-3-1-0-1-1-0-0||
G|-0-0-0--0-0-0---0-0---0-0-0-0-0-0-0|| (x2)
D|-2---------------------------------||
A|-x---------------------------------||
E|-x---------------------------------||

   U u u u u u u u u u u u u u u ||
E|-3-3-8-7-5-7-5-3-5-1-3-7-5-5-3-|| (x2)
D|-------------------------------||
B|-0-0-0-0-0-0-0-0-0-0-0-0-0-0-0-||


(1)  G  C   G   C           G    C   G
Solo tu uuu uuu uuu eres mi adióoooos
C    G  C   G   C           G  C    G
Solo tu uuu uuu uuu eres mi amooooor
      C Em7 Am  D       G  C   G
Volveré eee eee junto a tiiiiii
    C      Em7 Am   D     G  C   G
Sin llorar aaa aaar y mi adióoooos (0)
       G  C   G      C          G   C   G
Es por ti iii iii iii por quien sueeeñooo
C    G  C   G   C        G  C   G
Dejaras aaa aaa aaa tu silencio
     C  Em7 Am  D       G  C  G
Volveré eee eee junto a tiiii
       C   Em7 Am  D    G  C  G
Sin llorar aaa aaa y mi adiooós

   Am               F        Dm          G
Tu recuerdo me  acompañara y no te olvidare
     Am            F        D            G     G7
Cada día el tiempo pasara soñando con volveeer

Repite [1] Hasta [0]  Luego En G  después el RiFF

E|--------------------------------------------------------
B|-12-12-12-10-12---10------------10-12-12-10-12-13-12-13-
G|---------------12---11-12-11-12-------------------------

E|-10------10--------------------------------------
B|---12-13---12-13-10-12---10----------------------
G|-----------------------12---11-12-11-10-11-10-11-

E|-------------------------------------------10----
B|---------10----10----10-12-10-12-13-12-13--------
G|-12-11-12---12----12-----------------------------

E|-------10------------------------------------------------
B|-12-13---12-13-10-12-------------------------------10----
G|---------------------12-11-12-11-10-11-11-12-11-12----12-

Escuchad la canción, Muchas veces? ¿Para poder interpretar lo escrito?
Suggest correction
Give kudos to tab author, rate the tab!
1 2 3 4 5
comments
print report bad tab
guest
You may want to rate the tab now too:
select rating
Wanna post a correction for this tab? Suggest correction