Oops, an error
Loading. Please wait.

No Puedo Estar Sin Ti Tab

version 2
version 2

Whole song

Interactive

by Mœnia
31 views 1 this week
no commentswrite comment
1 2 3 4 5
3 more votes to show rating
add to favorites
launch autoscroll
font size
0
reset
how to read this tab
guitar tuner
×
Best way to learn
"No Puedo Estar Sin Ti"
Autoscroll
slow
fast
+/-
esc
set tempo
stop
q onda este el tab bueno, habia otro muy parecido pero le faltaban 
algunos detallitos.


 INTRO:


   Riff1:
     G              ?                  F#m          Bm           A
 e -------------|--------------------|------------|-----------|----------|
 b -------------|--------------------|------------|----3------|----2-----|
 g ------0------|---------0----------|------2-----|---4--4----|---2--2---|
 D ----0---0--0-|-------0---0---0----|----4--4--4-|--4-----4--|--2----2--|
 A --2-------2--|-----4-------4---4--|--4------4--|-2---------|-0--------|
 E -3-----------|-3/5----------------|-2----------|-----------|----------|


  Riff2:
     G              ?                  F#m           B
 e -------------|--------------------|------------|--2-----|
 b -------------|--------------------|------------|--4-----|
 g ------0------|---------0----------|------2-----|--4-----|
 D ----0---0--0-|-------0---0---0--0-|----4--4----|--4-----|
 A --2-------2--|-----4-------4---4--|--4------4--|--2-----|
 E -3-----------|-3/5----------------|-2----------|--2-----|


nota-. El riff 2 antes de entrar al coro se toca varias 
veces B como con una rasgeo siempre pa' abajo (igual en el coro)


 Riff1:
   Aqui estoy, veo la lluvia caer
  Riff1:
   Y parece, que este día, no termina
  Rirr1:
   Aqui es estoy, preguntandome hasta cuando podran
  Riff2:
   Estas fotos salvarme.

  CORO:(con rasgueo)

  B               G              A                 F#m      B
   Y esq que ya no aguanto, te extraño, No puedo estar sin ti

               G             A                F#m
   Estar esperando, me hace daño, no puedo estar sin ti...

   B G A F#m B


  Riff1:
   Y miro al viento, su caricia y amor
  Riff1:
   Un sentimiento, que me habla pero, no lo entiendo
  Riff1:
   Ya se que no (ya se que no), soy el que tiene la razón
  Riff2:
   Pero no puedo haceptarlo...


  B               G              A                 F#m      B
   Esq que ya no aguanto, te extraño, No puedo estar sin ti

               G             A                F#m
   Estar esperando, me hace daño, no puedo estar sin ti...


  B               G              A                 F#m      B
   Esq que ya no aguanto, te extraño, No puedo estar sin ti (no puedo)

               G             A                F#m
   Estar esperando, me hace daño, no puedo estar sin ti...


   SOLO:
    B  G  A  F#m  B
      G  A  F#m  B


  B               G              A                 F#m      B
   Esq que ya no aguanto, te extraño, No puedo estar sin ti

               G             A                F#m
   Estar esperando, me hace daño, no puedo estar sin ti...


  B               G              A                 F#m      B
   Esq que ya no aguanto, te extraño, No puedo estar sin ti (no puedo)

               G             A                F#m
   Estar esperando, me hace daño, no puedo estar sin ti...


(en la cancion va un tercer coro pero solo se toca B uan vez y lo demas  con un violin d fondo)


Comentarios, cricas, elogios y sugerencias a nano_nanito_nanin@


 gracias
Suggest correction
Give kudos to tab author, rate the tab!
1 2 3 4 5
comments
print report bad tab
guest
You may want to rate the tab now too:
select rating
Wanna post a correction for this tab? Suggest correction