Oops, an error
Loading. Please wait.

Triciclo Perú Tab

version 2
version 2

Whole song

Interactive

216 views 3 this week
no commentswrite comment
1 2 3 4 5
3 more votes to show rating
add to favorites
×
Save as Personal and add changes to this tab that will be seen only by you. Learn more ›
×
You can save this tab as Personal to edit and correct it or add notes. All changes will be seen only by you. Learn more »
save as personal
new!
launch autoscroll
font size
0
reset
how to read this tab
guitar tuner
Autoscroll
slow
fast
+/-
esc
set tempo
stop
Author
Unregistered
//: Deslice

Ejemplo:

5//7: significa que tienes que deslizar del trate 5 al traste 7.

Stos son todos los akordes ke se utilizan:

     A5   F5   G5   C5   B5   E5*  F5*   G5*   A5*   B5*   C5*
1|--------------------------------------------------------------
2|--------------------------------------------------------------
3|------------------5----4----9----10----12----14----16----17---
4|---7----3----5----5----4----9----10----12----14----16----17---
5|---7----3----5----3----2----7----8-----10----12----14----15---
6|---5----1----3------------------------------------------------

Mientras tokas el punteo del intro la otra guitarra
toka stos akordes apagando: A5 F5 G5 A5

INTRO:                                             __
    A5                                               |
1|---------------------------------------------|     |
2|--------13-15-17-15-13--------13-15-17-15-13-|     |
3|--14-14----------------14--14----------------|     |
4|---------------------------------------------|     |
5|---------------------------------------------|     |
6|---------------------------------------------|     |
    F5                                               |
1|---------------------------------------------|     |
2|---------------------------------------------|     |
3|--------14-16-17-16-14--------14-16-17-16-14-|     |
4|--15-15----------------15--15----------------|     | 2
5|---------------------------------------------|     |
6|---------------------------------------------|     | V
                                                     | E
        G5                                           | C
1|------------------------------------------------|  | E
2|------------------------------------------------|  | S
3|-----------16-17-19-17-16-------16-17-19-17-16--|  |
4|--15//17-17----------------17-17----------------|  |
5|------------------------------------------------|  |
6|------------------------------------------------|  |
        A5                                           |
1|-----------------------------------------||        |
2|-----------------------------------------||        |
3|--------------17-19//21-21-21-19-17------||        |
4|--17//19-19-19----------------------19.--||        |
5|-----------------------------------------||        |
6|-----------------------------------------||        |
                                                   __|


Triciclo con zapato un vaso de chicha un buen reloj
     A5                          F5


1|-----------------||
2|-----------------||
3|----2--4//5-4-2--||
4|--3--------------||
5|-----------------||
6|-----------------||

camisas chucherias de todo en las calles y en montón
      A5                             F5

1|----------------------||
2|----------------------||
3|----------7//9//7-----||
4|---10-9-7---------10--||
5|----------------------||
6|----------------------||

(aka abajo hay unos punteos ke se tokan al mismo tiempo ke la kanta)
persigna la primera venta  las calles están repletas
    G5               F5          G5              F5

     G5           F5      |      G5           F5      |
1|---------------------|| | 1|---------------------|| |
2|---------------------|| | 2|---------------------|| |
3|-----4-5-7-5-4--5-4--|| | 3|-----4-5-7-5-4--5-4--|| |
4|---5-----------------|| | 4|---5-----------------|| |
5|---------------------|| | 5|---------------------|| |
6|---------------------|| | 6|---------------------|| |
                          |                           |
empuja el triciclo ambulante
     G5                F5

     G5           F5
1|---------------------||
2|---------------------||
3|-----4-5-7-5-4--5-4--||
4|---5-----------------||
5|---------------------||
6|---------------------||

llamado PERU
          A5

Kon akordes y punteo:
    A5
1|---------------------------------------------|
2|--------13-15-17-15-13--------13-15-17-15-13-|
3|--14-14----------------14--14----------------|
4|---------------------------------------------|
5|---------------------------------------------|
6|---------------------------------------------|
    F5
1|---------------------------------------------|
2|---------------------------------------------|
3|--------14-16-17-16-14--------14-16-17-16-14-|
4|--15-15----------------15--15----------------|
5|---------------------------------------------|
6|---------------------------------------------|

        G5
1|------------------------------------------------|
2|------------------------------------------------|
3|-----------16-17-19-17-16-------16-17-19-17-16--|
4|--15//17-17----------------17-17----------------|
5|------------------------------------------------|
6|------------------------------------------------|
        A5
1|-----------------------------------------||
2|-----------------------------------------||
3|--------------17-19//21-21-21-19-17------||
4|--17//19-19-19----------------------19.--||
5|-----------------------------------------||
6|-----------------------------------------||

Los micros están repletos la gente se apresta a trabajar
       A5                               F5

1|-----------------||
2|-----------------||
3|----2--4//5-4-2--||
4|--3--------------||
5|-----------------||
6|-----------------||

obreros empleados doctor enfermera y hasta un capitán
   A5                          F5

1|---------------------||
2|---------------------||
3|----------7//9//7----||
4|---10-9-7--------10--||
5|---------------------||
6|---------------------||

van mirando sus relojes    mientras el microbúsero
       G5          F5          G5               F5

     G5          F5       |      G5          F5       |
1|---------------------|| | 1|---------------------|| |
2|---------------------|| | 2|---------------------|| |
3|-----4-5-7-5-4--5-4--|| | 3|-----4-5-7-5-4--5-4--|| |
4|---5-----------------|| | 4|---5-----------------|| |
5|---------------------|| | 5|---------------------|| |
6|---------------------|| | 6|---------------------|| |
                          |                           |

impulsa estos pistones
  G5             F5

     G5           F5
1|---------------------||
2|---------------------||
3|-----4-5-7-5-4--5-4--||
4|---5-----------------||
5|---------------------||
6|---------------------||

llamados PERU
           A5

(ESTE SOLO DE AKA ABAJO ES DE ORGANO PERO LO EH PUESTO PARA GUITARRA)

Punteo:

     A5                      G5
1|-------------------------|------------------------|
2|-------------------------|------------------------|
3|-----------4-5--7-5-4----|------------4-5-4-------|
4|---7----7-------------7--|--5----5--7-------7-5---|
5|-----7-------------------|----5-------------------|
6|-------------------------|------------------------|

     F5                     D5//E5* F5*//G5* A5*//B5* C5*
1|------------------------|-----------------------------------------|
2|------------------------|-----------------------------------------|
3|------------2-4-2-------|-----------------------------------------|
4|---3----3-5-------5-3---|-----------------------------------------|
5|-----3------------------|--5//7--7//9--9//11--11//12--12//14--15--|
6|------------------------|-----------------------------------------|

     Este pikeo es igual al solo de teclado

1|--12-8-10-12--8-10-12-12-12-|--15--------------15-15-15---------|
2|----------------------------|-----15-12--12-15------------------|
3|----------------------------|-----------------------------------|
4|----------------------------|-----------------------------------|
5|----------------------------|-----------------------------------|
6|----------------------------|-----------------------------------|

1|--13--------------13-13-13--|----------------------------------------|
2|-----13-10--10-13-----------|----------------------------------------|
3|----------------------------|----------------------------------------|
4|----------------------------|----------------------------------------|
5|----------------------------|--5//7--7//9--9//11--11//12--12//14--15-|
6|----------------------------|----------------------------------------|

1|---------------------------------|
2|---------------------------------|
3|---------------------------------|
4|---7-10-7---10-7---10-7---10-7---|
5|-8--------8------8------8------8-|
6|---------------------------------|

   G5
1|--------------------------------------|
2|--------------------------------------|
3|--------------------------------------|
4|----9-12-9----12-9----12-9----12-9----|
5|-10--------10------10------10------10-|
6|--------------------------------------|


     A5
1|----------------------------------|
2|----------------------------------|
3|----------------------------------|
4|-------------------10-------------|
5|-10//12-10----10-12--12-10--------|
6|-----------12-------------12-10-8-|


   F5                          G5
1|----------------------------------|-------------------------------|
2|----------------------------------|-------------------------------|
3|----------------------------------|-------------------------------|
4|---7-10-7---10-7---10-7---10-7----|----9-12-9--12-9--12-9--12-9---|
5|-8--------8------8------8------8--|-10-------10----10----10----10-|
6|----------------------------------|-------------------------------|
     E5*
1|------------------------------------------||
2|------------------------------------------||
3|--12//14--12//14--12//14--12//14---12-10--||
4|------------------------------------------||
5|------------------------------------------||
6|------------------------------------------||

coro

Todos a la cima todos quieren llegar
   A5
no importa el camino todos van a llegar a la cima felicidad
     A5                                        D5       A5

    A5
1|------------------------|
2|------------------------|
3|--5---5----7-5-7-5---5--|
4|----7--------------7----|
5|------------------------|
6|------------------------|

el pobre a ser rico el rico el rico a ser rey
  A5                    A5
el rey a la gloria la gloria inmortal resurrección
                         A5                   D5

      D5
1|-------------------|
2|-------------------|
3|------5---7//9-7-5-|
4|----7--------------|
5|-------------------|
6|-------------------|

vuelve a empezar
             A5

     A5
1|----------------------------|
2|----------------------------|
3|----------------5-----------|
4|--5//7--5---5-7---7-5-------|
5|----------7-----------7-5---|
6|--------------------------8-|

muchos zapatos vamos a gastar para llegar
  E5*                                  A5

     A5
1|---5------------------------------------|
2|-----8-6-5------------------------------|
3|-----------7-5-4------------------------|
4|-----------------7-5--------------------|
5|---------------------8-7-5--------------|
6|---------------------------8-7-5//3//5--|

Alma para conquistarte corazón para quererte
A5                          G5
y vida para vivirla junto a ti [*] (bis)
   F5                  E5*

 _                                    _
|     D5//E5* F5*//G5* A5*//B5* C5*    |
| 1|-------------------------------|   |     1
| 2|-------------------------------|   |
| 3|-------------------------------|   | [*] V
| 4|-------------------------------|   |     E
| 5|--5//7----9//11---12//14---15--|   |     Z
| 6|-------------------------------|   |
|_                                    _|

   F5                                G5
1|--------------------------------|-------------------------------------|
2|--------------------------------|-------------------------------------|
3|--------------------------------|-------------------------------------|
4|---7-10-7---10-7---10-7---10-7--|----9-12-9----12-9----12-9----12-9---|
5|-8--------8------8------8------8|-10--------10------10------10------10|
6|--------------------------------|-------------------------------------|

       A5                             F5
1|----------------------------------|----------------------------------|
2|----------------------------------|----------------------------------|
3|----------------------------------|----------------------------------|
4|-------------------10-------------|---7-10-7---10-7---10-7---10-7----|
5|-10//12-10----10-12--12-10--------|-8--------8------8------8------8--|
6|-----------12-------------12-10-8-|----------------------------------|

   G5
1|-------------------------------|
2|-------------------------------|
3|-------------------------------|
4|----9-12-9--12-9--12-9--12-9---|
5|-10-------10----10----10----10-|
6|-------------------------------|

   A5
1|-10//12--10//12--10//12-10//12--10-----------||
2|-----------------------------------13-10-13--||
3|---------------------------------------------||
4|---------------------------------------------||
5|---------------------------------------------||
6|---------------------------------------------||

Coro:

Todos a la cima todos quieren llegar
A5                      [ch]C5      B5 G5[/ch]
no importa el camino todos van a llegar a la cima felicidad
     A5                    C5      B5 G5      D5     A5

    A5
1|------------------------|
2|------------------------|
3|--5---5----7-5-7-5---5--|
4|----7--------------7----|
5|------------------------|
6|------------------------|

el pobre a ser rico el rico el rico a ser rey
  A5                              C5 B5 G5
el rey a la gloria la gloria inmortal resurrección
    A5                    C5    B5  G5          D5

     D5
1|-------------------|
2|-------------------|
3|------5---7//9-7-5-|
4|----7--------------|
5|-------------------|
6|-------------------|

vuelve a empezar
             A5
     A5
1|----------------------------|
2|----------------------------|
3|----------------5-----------|
4|--5//7--5---5-7---7-5-------|
5|----------7-----------7-5---|
6|--------------------------8-|

muchos zapatos vamos a gastar para llegar
  E5*                                   F5* G5* A5*

1|-------------------------------------------|
2|-------------------------------------------|
3|--9//10--10--10---10//12--12--12---12//14--|
4|-------------------------------------------|
5|-------------------------------------------|
6|-------------------------------------------|

[ch]B[/ch], PERÚ
A5   A5


Esta es toda la tab. De la kancion ,tokenla kon ganas pxs xk es piolasa,
 esta 100% correcta ,si no me creen scuchenla kon el CD pxs.
los dejo y ke ...viva el rock peruano!!! xD...
un saludaso pa toos los patas de mi promo 2006 del bertolt sede S.J.L
Suggest correction
Give kudos to tab author, rate the tab!
1 2 3 4 5
comments
print report bad tab
guest
Wanna post a correction for this tab? Suggest correction