Oops, an error
Loading. Please wait.

Afán De Fama Tab

10 views 1 this week
no commentswrite comment
1 2 3 4 5
3 more votes to show rating
add to favorites
launch autoscroll
font size
0
reset
how to read this tab
guitar tuner
Autoscroll
slow
fast
+/-
esc
set tempo
stop
Help us to improve Ultimate-Guitar.com Take our survey!
×
INTRODUCCIÓN:
E|----------------------|
B|----------------------|
G|-5-5-----5------------|
D|-5-5-555-5-333/55-33--|
A|-3-3-555-3-333/55-33--|
E|-----333---111/33-11--|

E|-12-10-8--10-12-13--12-10-8--10-8-7-------7-8-10-12-10-8-10-8-
B|------------------------------------10-8----------------------
G|--------------------------------------------------------------
D|--------------------------------------------------------------
A|--------------------------------------------------------------
E|--------------------------------------------------------------
   C5           F5         G5

E-12-10-8--10-12-13--12-10-8--10--|
B---------------------------------|
G---------------------------------| X2
D---------------------------------|
A---------------------------------|
E---------------------------------|
  C5            F5          G5


C5                 F5                          G5
No hace falta comprtarse como un tonto por la fama
G5              C5
no los soporto, no
F5                    G5                       G5
figurando en mil programas que no sirven para nada

 - RIFF 1 -

C5            F5                       G5
Con acento rebuscado en tus frases cotidianas,
G5            C5
antes no era así
F5                G5                   G5
y showsitos de farándula de línea importada

 - RIFF 1 -

C
En qué momento me deje tenar
G
de esta bella inustria
F5                       G5   RIFF 2
Yo me cago en esta merda ya


CORO:
C5             A5
Que asco me da toda esta basura
    G5                F5
que esta alimentando toda mi amargura
C5         A5            G5    RIFF 3
pero no lo logro comprender
C5             A5
Que asco me da toda esta amargura
    G5                F5
me envenena el cuerpo ver tanta basura
G5         A5            G5
vomitar alivia al parecer


 - INTRODUCCIÓN -


C5             F5                         G5
Mendigando votaciones cual político en campaña
G5
me cansé de esto ya
C5            F5                G5          G5
en concursos tan estúpidos con jueces de la nada

 - RIFF 1 -

C5                   F5                          G5
Preocupapados por mentiras que se mexclan con la fama,
G5
no quiero ser así
C5            F5                  G5
Hoy día tener banda se volvió una payasada

 - RIFF 1 -

C
En qué momento me deje tenar
G
de esta bella inustria
F5                       G5   RIFF 2
Yo me cago en esta merda ya


CORO:
C5             A5
Que asco me da toda esta basura
    G5                F5
que esta alimentando toda mi amargura
C5         A5            G5    RIFF 3
pero no lo logro comprender
C5             A5
Que asco me da toda esta amargura
    G5                F5
me envenena el cuerpo ver tanta basura
G5         A5            G5
vomitar alivia al parecer


F5    G5     C5
Ya me siento bien
F5     G5     C5
Cuánto tiempo no lo sé
F5   G5   C5   B5     A5    G5         F5
Vomité la hiel que me enfermó y me volvió
        G5           C5
un amargado sin querer

FINAL: X3
E|-8----10-12-13--12-10-8-10----10-12-13--12--10-12--|
B|---------------------------------------------------|
G|---------------------------------------------------|
D|---------------------------------------------------|
A|---------------------------------------------------|
E|---------------------------------------------------|

E|-8----10-12-13--12-10-8-10----10-10-8-10-13-12-8-10-8-|
B|------------------------------------------------------|
G|------------------------------------------------------|
D|------------------------------------------------------|
A|------------------------------------------------------|
E|------------------------------------------------------|


ACORDES:
E|---x---x---x---x---x---|---3---3---|
B|---x---x---x---x---x---|---5---3---|
G|---x---x---5---x---4---|---5---4---|
D|---3---5---5---7---4---|---5---5---|
A|---3---5---3---7---2---|---3---5---|
E|---1---3---x---5---x---|-------3---|
     F5  G5  C5  A5  B5      C   G

RIFF 1:
E|-7-8--10--8-7-|
B|--------------|
G|--------------|
D|--------------|
A|--------------|
E|--------------|
   G5

RIFF 2:
E|----------|
B|----------|
G|-----4-5--|
D|-5-7-X-X--|
A|-X-X-2-3--|
E|-3-5------|

RIFF 3:
E|-13--12-10-8--|
B|--------------|
G|--------------|
D|--------------|
A|--------------|
E|--------------|
   G5
Suggest correction
Give kudos to tab author, rate the tab!
1 2 3 4 5
comments
print report bad tab
guest
You may want to rate the tab now too:
select rating
Wanna post a correction for this tab? Suggest correction