Oops, an error
Loading. Please wait.

Interés Cuanto Vales Tab

52 views 1 this week
no commentswrite comment
1 2 3 4 5
3 more votes to show rating
add to favorites
×
Save as Personal and add changes to this tab that will be seen only by you. Learn more ›
×
You can save this tab as Personal to edit and correct it or add notes. All changes will be seen only by you. Learn more »
save as personal
new!
launch autoscroll
font size
0
reset
how to read this tab
guitar tuner
Autoscroll
slow
fast
+/-
esc
set tempo
stop
Bueno, ahy sta una buena cancion de la moji, va pa mi banda,
PaAank! ojala algun dia la tokemos del carajo!....

pase todas las parts de las trompetas a punteos en guitarra,
sta muy facil alguna duda o correccion me contactan en mi correo


Intro: guitarra 1

entra con distorsion, escuchando la cancion le cojen el ritmo:

C5-F5/G5/F5
C5-F5/G5/F5.....SE REPITE ESTO 10 VECES (primera guitarra)


Intro: guitarra 2 (trompetas)

mientras la guitarra 1 hace el intro con acordes, la otra hace
la funcion de las trompetas en la cancion con este punteo:

e--12-12-12-13-12-10-12-10/8--8-10-12--12-13-12-10-8---
B------------------------------------------------------
G------------------------------------------------------
D------------------------------------------------------
A------------------------------------------------------
E------------------------------------------------------

e--8-10-8--12-13-12-10-12-10/8--8-10-12--12-13-12-10-8--8-10-8///--
B------------------------------------------------------------------
G------------------------------------------------------------------
D------------------------------------------------------------------
A------------------------------------------------------------------
E------------------------------------------------------------------


----------------------------------------------------------------------
DESPUES DE ESTO ENTRA LA GUITARRA 1 EN RITMO SKA

 C-F/G.........ESO SE REPITE DURANTE TODA LA ESTROFA

reacciona que tu dinero no es nada!

para que humilles a otros,

no te hace mas importante

ni te hace un rey

pasando por la calle de un barrio popular

te reis de la pobreza y de lo mal que viviran


DESPUES ENTRA EN DISTORSION:

     G5                            C5
es mejor que abras los ojos porque no es como crees
        F5
no me importa si tenes estrato 6, (interes cuanto vales)

-------------------------------------------------------------------

DESPUES VA EL INTRO DE NUEVO (la mitad de este)

-------------------------------------------------------------------

DE NUEVO EN RITMO SKA: C-F/G

reacciona que tu dinero no es nada!

para que humilles a otros,

no te hace mas importante

ni te hace un rey

pasando por la calle de un barrio popular

te reis de la pobreza y de lo mal que viviran

---------------------------------------------------------------------

   G5                            C5
es mejor que abras los ojos porque no es como crees
        F5
no me importa si tenes estrato 6, (interes cuanto vales)

   G5                            C5
es mejor que abras los ojos porque no es como crees
        F5
no me importa si tenes estrato 6, (interes cuanto vales)

----------------------------------------------------------------------


 INTERMEDIO: guitarra 1

 C5-C5/F5/G5/F5  C5-C5/D5/C5....ESO SE REPITE 12 VECES...


 INTERMEDIO: guitarra 2


e--8-8--888-7-8---8-8--888-7-8---8-8--888-7-8---8-8--888-7-8-------
B------------------------------------------------------------------
G------------------------------------------------------------------
D------------------------------------------------------------------
A------------------------------------------------------------------
E------------------------------------------------------------------

 G5                            C5
es mejor que abras los ojos porque no es como crees
        F5
no me importa si tenes estrato 6, (interes cuanto vales)

G5                            C5
es mejor que abras los ojos porque no es como crees
        F5
no me importa si tenes estrato 6, (interes cuanto vales)


e--12-12-12-13-12-10-12-10/8--8-10-12--12-13-12-10-8---
B------------------------------------------------------
G------------------------------------------------------
D------------------------------------------------------
A------------------------------------------------------
E------------------------------------------------------

e--8-10-8--12-13-12-10-12-10/8--8-10-12--12-13-12-10-8--8-10-8///--
B------------------------------------------------------------------
G------------------------------------------------------------------
D------------------------------------------------------------------
A------------------------------------------------------------------
E------------------------------------------------------------------

eso es todo...spero le sirva, scuchando la cancion ahy se guian!
Joseeee parc es pa ke la coja!! pilas pues

arriba medallo! arriba colombia! arriba la moji! arriba paAanK!
Suggest correction
Give kudos to tab author, rate the tab!
1 2 3 4 5
comments
print report bad tab
guest
Wanna post a correction for this tab? Suggest correction