Oops, an error
Loading. Please wait.

Aquella Ves Que Me Cogí Un Pellisco Tab

25 views 1 this week
no commentswrite comment
1 2 3 4 5
3 more votes to show rating
add to favorites
launch autoscroll
font size
0
reset
how to read this tab
guitar tuner
×
Best way to learn
"Aquella Ves Que Me Cogí Un Pellisco"
Autoscroll
slow
fast
+/-
esc
set tempo
stop
+ Tabulados de made in spain!                   +
+ [                        +
+++++++++++++++++++++++++++++++++++++++++++++++++

Aquella vez que me pilló un pellizco con la cremallera en un huevo:
(Acústica)

Intro y porciones instrumentales
      D                          Db/D
e |---2--2--0--2--2--2-----1-1-1-1-1-1-1-1-------------|
B |---3--3--3--3--3--3-----2-2-2-2-2-2-2-2-------------|
G |---2--2--2--2--2--2-----1-1-1-1-1-1-1-1-------------|
D |---0--0--0--0--0--0-----0-0-0-0-0-0-0-0-------------|
A |----------------------------------------------------|
E |----------------------------------------------------|
      ^  ^  v  ^  ^  ^     ^ ^ v v ^ ^ ^ ^      

Verso: (rasgueado con mucho "sentimiento")
        Em                        A
e |-----0-0-0-0-0-0-------------0-0-0-0-0-0------------------|
B |-----0-0-0-0-0-0-------------2-2-2-2-2-2------------------|
G |-----0-0-0-0-0-0-------------2-2-2-2-2-2------------------|
D |-----2-2-2-2-2-2-------------2-2-2-2-2-2------------------|
A |-----2-2-2-2-2-2-------------0-0-0-0-0-0------------------|
E |-----0-0-0-0-0-0------------------------------------------|
         Aaaaaaayyyyyyyy        Ayayay ayayyyyyyyyyyyy....


    Si alguien tiene más tabulaciones de los mojinos o desea 
mandarme correcciones sobre estas mandar un E-mail
            Javi: povedanofam@
Suggest correction
Give kudos to tab author, rate the tab!
1 2 3 4 5
comments
print report bad tab
guest
You may want to rate the tab now too:
select rating
Wanna post a correction for this tab? Suggest correction