Oops, an error
Loading. Please wait.

El Cura Tab

34 views 1 this week
no commentswrite comment
1 2 3 4 5
3 more votes to show rating
add to favorites
launch autoscroll
font size
0
reset
how to read this tab
guitar tuner
×
Best way to learn
"El Cura"
Autoscroll
slow
fast
+/-
esc
set tempo
stop
Esta canción es una copia de la versión origianl 'Into the fire'
de los legendarios Led Zeppelin.

Aquí os dejo únicamente la tablatura original.

                                                         3x
E||--------------------------|---------------------------||
B||--------------------------|---------------------------||
G||*-------------------------|--------------------------*||
D||*----------------0--0---1-|--2-----------------------*||
A||---2----2----0-2----------|--------------------0--1---||
E||--------------------------|----0---1--2--3--4---------||


------------------------||-------------------|----------------------|
------------------------||-------------------|----------------------|
------------------------||*------------------|----------------------|
-------------------0--1-||*-------6-------6--|-------6--------------|
-2-0---1--2--3--4-------||--------7-------7--|-------7-----------0--|
------------------------||---0-------0-------|--0-------0---0-3-----|


----------------------|------------------------|--------------------|
----------------------|------------------------|--------------------|
----------------------|------------------------|--------------------|
-------6---------6----|-------6----------------|-------6-------6----|
-------7---------7----|-------7-------------0--|-------7-------7----|
--0---------0---------|--0---------0---0-3-----|--0-------0---------|


------------------------|-------------------------|
------------------------|-------0------0----------|
------------------------|------------2---2--------|
-------6----------------|----------------------4--|
-------7-------------0--|--2----------------------|
--0---------0---0-3-----|-------------------------|


-----------------------------|-------------|-------------------------|
-------0---------------------|-------------|-------------------------|
-----------------------------|-------------|-------------------------|
-----------(2)-2-0-----------|-------------|----------------0--0---1-|
--2-----------------2---0----|-------------|--2----2----0-2----------|
--------------------------3--|--0--0-------|-------------------------|


------------------------|----------------------|-------------------------|
------------------------|----------------------|-------------------------|
------------------------|----------------------|-------------------------|
-2----------------------|-------------0--0---1-|-2-----------------------|
-------------------0--1-|-2--2----0-2----------|-------------------0--1--|
---0---1--2--3--4-------|----------------------|---0---1--2--3--4--------|


-------------------------|--------------------------|
-------------------------|--------------------------|
-------------------------|--------------------------|
----------------0--0---1-|--2-----------------------|
--2----2----0-2----------|--------------------0--1--|
-------------------------|----0---1--2--3--4--------|


---------------------------||-------------------------------|
---------------------------||-------------------------------|
--------------------------*||-------------------------------|
--------------------0--1--*||--------2-2-2-2----2-2-(2)-----|
--2-0---1--2--3--4---------||-------------------------------|
---------------------------||--0-------------0--------------|


****AQUI ENTRA EL SOLO****
-----------------------------|--------------------------|
-----------------------------|--------------------------|
-----------------------------|--------------------------|
--------2-2--2-2-2-2-2-2-----|------2-2---------2-2-----|
-----------------------------|--------------------------|
--0--------------------------|--0-----------0-----------|


----------------------------|----------------------------|
----------------------------|----------------------------|
----------------------------|----------------------------|
------2-2-------2-2-2-2-----|------(2)-2---------2-2-----|
----------------------------|----------------------------|
--0-----------0-------------|--0-------------0-----------|


----------------------------|--------------------------|
----------------------------|--------------------------|
----------------------------|--------------------------|
------(2)-2---------2-2-----|--------2---2-----2-2-----|
----------------------------|--------------------------|
--0-------------0-----------|--0-----------0-----------|


       ****AQUI ACABA EL SOLO****
--------------------------|------------------|----------------------|
--------------------------|------------------|----------------------|
--------------------------|------------------|----------------------|
------2-2---------2-2-----|------------------|----------------------|
--------------------------|--2--2------------|--2--2----------------|
--0-----------0-----------|------------------|----------------------|


-------------------------|---------------------|-------------------|
-------------------------|---------------------|-------------------|
--------------------3--4-|---------------------|-------------------|
--------3--4-------------|----------------0--1-|------6-------6----|
--1--2--------1--2-------|-0--1--2--3--4-------|------7-------7----|
-------------------------|---------------------|-0-------0---------|


----------------------|--------------------|------------------------|
----------------------|--------------------|------------------------|
----------------------|--------------------|------------------------|
-------6--------------|-----6---------6----|-------6----------------|
-------7-----------0--|-----7---------7----|-------7-------------0--|
--0-------0---0-3-----|--0-------0---------|--0---------0---0-3-----|


--------------------|----------------------|-------------------------|
--------------------|----------------------|-------0------0----------|
--------------------|----------------------|------------2---2--L-----|
-------6-------6----|-----6----------------|----------------------4--|
-------7-------7----|-----7-------------0--|--2----------------------|
--0-------0---------|--0-------0---0-3-----|-------------------------|


-----------------------------|-------------|-------------------------|
-------0---------------------|-------------|-------------------------|
-----------------------------|-------------|-------------------------|
-----------(2)-2-0-----------|-------------|----------------0--0---1-|
--2-----------------2-L-0----|-------------|--2----2----0-2----------|
--------------------------3--|--0--0-------|-------------------------|


-------------------------|----------------------|-------------------------|
-------------------------|----------------------|-------------------------|
-------------------------|----------------------|------------------------|
-2-----------------------|-------------0--0---1-|-2-----------------------|
-------------------0--1--|-2--2----0-2----------|-------------------0--1--|
---0---1--2--3--4--------|----------------------|---0---1--2--3--4--------|


---------------------|-------------------------|-------------------------|
---------------------|-------------------------|-------------------------|
---------------------|-------------------------|-------------------------|
-------------0--0--1-|--2----------------------|-------------------0--1--|
-2--2----0-2---------|-------------------0--1--|--2-0--1--2--3--4--------|
---------------------|----0--1--2--3--4--------|-------------------------|


--------------------------|--------------------------|
--------------------------|--------------------------|
--------------------3--4--|--------------------3--4--|
--------3--4--------------|--------3--4--------------|
--1--2--------1--2--------|--1--2--------1--2--------|
--------------------------|--------------------------|


--------------------------|------||
--------------------------|------||
--------------------3--4--|------||
--------3--4--------------|------||
--1--2--------1--2--------|--2---||
--------------------------|--0---||


****SOLO DE GUITARRA****


--------------------|
--------------------|
--7~----------------|
--------------------|
--------------------|
--------------------|


-----------------------------------------------------|-------------|
----8-----------------10-9h-10p-9-12-8h-10p-8--------|-------------|
--L---10p-9p-7-9------------------------------11p-9--|--7b---------|
-----------------(12)--------------------------------|-------------|
-----------------------------------------------------|-------------|
-----------------------------------------------------|-------------|


-----------------------------------------|---------------------------|
------8-8-8-8-7-7-7-7--------------------|-------0-------------------|
--7g9-----------------9-9-9-7--11-L--12~-|--L----------14g16--12b-11-|
-----------------------------------------|---------------------------|
-----------------------------------------|---------------------------|
-----------------------------------------|---------------------------|


----------------------------12------12--------------------|
---------------------12--------15b-----15-14-12-----------|
--14b--14--12--11-14----14b---------------------14-12h-14-|
----------------------------------------------------------|
----------------------------------------------------------|
----------------------------------------------------------|


-------------------------|------------------------------------|
-------------------------|------8-8-8-7----8-7----8-7---------|
--12~--------------------|--7g9---------9------9------9--7----|
-------------------------|------------------------------------|
-------------14S----x----|------------------------------------|
-------------------------|------------------------------------|


-------------------7-------------|--12-10--9------------------------|
-----------------7---10b---L-----|-----------12--10--9--7-----------|
--9b----9b----9b---------(10)----|-------------------------10--9--7-|
---------------------------------|----------------------------------|
---------------------------------|----------------------------------|
---------------------------------|----------------------------------|


---------------------------|------------------------------|-----|
---------------------------|------------------------------|-----|
---------------------------|------------------------------------|
---------------------8--9--|------------------------------|-----|
---------8--9--------------|------------------------------|-----|
--6h--7--------6--7--------|-----5--6--7--8--9--10--11----|-----|
Suggest correction
Give kudos to tab author, rate the tab!
1 2 3 4 5
comments
print report bad tab
guest
You may want to rate the tab now too:
select rating
Wanna post a correction for this tab? Suggest correction