Oops, an error
Loading. Please wait.

Los Cochinos Tab

28 views 1 this week
no commentswrite comment
1 2 3 4 5
3 more votes to show rating
add to favorites
launch autoscroll
font size
0
reset
how to read this tab
guitar tuner
×
Best way to learn
"Los Cochinos"
Autoscroll
slow
fast
+/-
esc
set tempo
stop
IMPORTANTE: Los Riffs 1 y 2 se tocan los acordes secos.
            Y los Riffs 3 y 4 (estribillo) se tocan rasgueando.


Riff 1:
   [ch]E,   [ch]G,   SOL#[/ch],   LA[/ch]
|----------------------------------------------|
|----------------------------------------------|
|----------------------------------------------|
|---2------5----6----7-------------------------|
|---2------5----6----7-------------------------|
|----------3----4----5-------------------------|

Riff 2:
   [ch]E,    [ch]G,  LA[/ch],    SI[/ch](o eso creo, no se komo se llama esta en 7
arriba)
|----------------------------------------------|
|----------------------------------------------|
|----------------------------------------------|
|---2-----5-----7------9-----------------------|
|---2-----5-----7------9-----------------------|
|---------3-----5------7-----------------------|

Riff 3
    [ch]E,    [ch]G[/ch],  LA[/ch],
|-----------------------------------------------|
|-----------------------------------------------|
|-----------------------------------------------|
|---2-----5------7------------------------------|
|---2-----5------7------------------------------|
|---------3------5------------------------------|

Riff 4
     [ch]E,    [ch]G[/ch],    SI[/ch],(o eso vuelvo a creer)
|---------------------------------------------|
|---------------------------------------------|
|---------------------------------------------|
|-----2-----5------9--------------------------|
|-----2-----5------9--------------------------|
|-----------3------7--------------------------|

Bueno aki empieza la cosa en serio, asi creo
ke va estructurada la cancion.

Riff 1

Riff 1
Los curro romero del rocanrol
Riff 1

Riff 2

Riff 1
Los yankis tienen pretoleo y minas de oro
Riff 1
La yerba güena siempre la´n tenio los moros
Riff 1
Colombia tiene los campos llenos de.....café
Riff 1
y pa güisky güeno el güisky escoses
Riff 1
Bla bla bla bla
Riff 1
BLA BLA BLA
Riff1
bla balabal bla  
Riff1
bla ozu bla
Riff 2

Riff 3 
Pero nohooooooooo nohotro tenemo los coshinos
Riff 4
Tenemo lo Jamone las aceituna y er vinooo

'Aaaaayyyyyyy ke se ma´scapaooooo........... la camella'
Suggest correction
Give kudos to tab author, rate the tab!
1 2 3 4 5
comments
print report bad tab
guest
You may want to rate the tab now too:
select rating
Wanna post a correction for this tab? Suggest correction