Oops, an error
Loading. Please wait.

Manolo Tab

version 1
version 1

Whole song

49 views 3 this week
no commentswrite comment
1 2 3 4 5
3 more votes to show rating
add to favorites
launch autoscroll
font size
0
reset
how to read this tab
guitar tuner
Autoscroll
slow
fast
+/-
esc
set tempo
stop
Help us to improve Ultimate-Guitar.com Take our survey!
×
+ Tabulados de made in spain!                   +
+ [                        +
+++++++++++++++++++++++++++++++++++++++++++++++++

Manolo: Guitarra con distorsion.

Intro
e |----------------------------------------------------
B |----------------------------------------------------
G |----------------------------------------------------
D |---------2-2----2--0--------|x2---------------------
A |---2--5---------------2-0---|x2----2^0--------------
E |-----------------------------------------3-2--------

Riff del Verso

e |----------------------------------------------------
B |----------------------------------------------------
G |-------------------7/9-9-9-9-|----------------------
D |--7/9-9-9-9--|x4?--7/9-9-9-9-|x 4 y al principio del riff
A |--7/9-9-9-9--|x4?--5/7-7-7-7-|----------------------
E |--5/7-7-7-7--|x4?-----------------------------------

 
Estribillo

B /// B /// B/// B/// E /// E//// E///     F#///////.. G


Si alguien tiene más tabulaciones de los mojinos o desea 
mandarme correcciones sobre estas mandar un E-mail
            Javi: povedanofam@
Suggest correction
Give kudos to tab author, rate the tab!
1 2 3 4 5
comments
print report bad tab
guest
You may want to rate the tab now too:
select rating
Wanna post a correction for this tab? Suggest correction