Oops, an error
Loading. Please wait.

Manolo Tab

version 2
version 2

Whole song

56 views 1 this week
no commentswrite comment
1 2 3 4 5
3 more votes to show rating
add to favorites
×
Save as Personal and add changes to this tab that will be seen only by you. Learn more ›
×
You can save this tab as Personal to edit and correct it or add notes. All changes will be seen only by you. Learn more »
save as personal
new!
launch autoscroll
font size
0
reset
how to read this tab
guitar tuner
Autoscroll
slow
fast
+/-
esc
set tempo
stop
Intro
e |------------------------------------------------------------
B |------------------------------------------------------------
G |----------------------------|-------------------------------
D |---------2-2----2--0--------|-2 veces-----------------------
A |---2--5---------------2-0---|--------------2-0--------------
E |-------------------------------------------------3-2--------

Riff del Verso
 
e |------------------------------------------------------------------------------------------
B |------------------------------------------------------------------------------------------
G |------------------------------------------------------------------------------------------
D |--7-9-9-9-[---9-[---9-7--7-9-9-9-----12--14---7-9-9-9-[---9-[---9-7--7-9-9-9-----14--12---
A |--7-9-9-9 [---9-[---9-7--7-9-9-9-----12--14---7-9-9-9-[---9-[---9-7--7-9-9-9-----14--12---
E |--5-7-7-7-[-7-7-[-7-9-5--5-7-7-7-----10--12---5-7-7-7-[-7-7-[-7-9-5--5-7-7-7-----12--10---

e |---------------------------------------------------------------------------------------
B |---------------------------------------------------------------------------------------
G |--9-[---9-[---9-[---9-7---|------------------------------------------------------------
D |--9-[---9-[---9-[---9-7---|-2 veces-----7-9-9-9-[---9-[---9-7--7-9-9-9----14-12-4------
A |--7-[-7-7-[-7-7-[-7-7-5---|-------------7-9-9-9-[---9-[---9-7--7-9-9-9----14-12-4------
E |----------------------------------------5-7-7-7-[-7-7-[-7-7-5--5-7-7-7----12-10-2------

e |------------------------------------------------------------
B |------------------------------------------------------------
G |------------------------------------------------------------
D | ---4-5---4----7-9-9-9-[---9-[---9-7--7-9-9-9----4----------
A | ---4-5---4----7-9-9-9-[---9-[---9-7--7-9-9-9----4----------
E | ---2-3---2----5-7-7-7-[-7-7-[-7-9-5--5-7-7-7----2----------

Estribillo
   
   manolo...................................... manolo        y ella se llamaba manoloooo
e |----------------------------------------------------------------------------------------------
B |----------------------------------------------------------------------------------------------
G |--------------------------9--[---9-[---9--[---9--11-----11-12---11---|------------------------
D |--9--[---9-[---9--[---9---9--[---9-[---9--[---9--11-----11-12---11---|-x2---------------------
A |--9--[---9-[---9--[---9---7--[-7-7-[-7-7--[-7-7---9------9-10----9---|------------------------
E |--7--[-7-7-[-7-7--[-7-7-----------------------------------------------------------------------

'Solo'

e |---------------------------------------------------------------------------------------------------------------
B |---------------------------------------------------------------------------------------------------------------
G |---------------------------------------9--[---9-7-8-9--[---9-7--|----------------------------------------------
D |--9--[---9-7-8-9--[---9-7--|-----------9--[---9-7-8-9--[---9-7--|-2 veces---9--[---9-7-8-9--[---9-7--|---------
A |--9--[---9-7-8-9--[---9-7--|-4 veces---7--[-7-7-5-6-7--[-7-7-5--|-----------9--[---9-7-8-9--[---9-7--|-2 veces-
E |--7--[-7-7-5-6-7--[-7-7-5--|------------------------------------------------7--[-7-7-5-6-7--[-7-7-5--|---------

e |--------------------------------------------------------------------
B |--------------------------------------------------------------------
G |--------------------------------------------------------------------
D |--4----4--5---12-12-12--7-8-9---7-9-9-9-[---9-[---9-7--7-9-9-9---4--
A |--4----4--5---12-12-12--7-8-9---7-9-9-9-[---9-[---9-7--7-9-9-9---4--
E |--2----2--3---10-10-10--5-6-7---5-7-7-7-[-7-7-[-7-9-5--5-7-7-7---2--

Estribillo
    manolo...................................... manolo        y ella se llamaba manoloooo
e |----------------------------------------------------------------------------------------------
B |----------------------------------------------------------------------------------------------
G |--------------------------9--[---9-[---9--[---9--11-----11-12---11---|------------------------
D |--9--[---9-[---9--[---9---9--[---9-[---9--[---9--11-----11-12---11---|-x2---------------------
A |--9--[---9-[---9--[---9---7--[-7-7-[-7-7--[-7-7---9------9-10----9---|------------------------
E |--7--[-7-7-[-7-7--[-7-7-----------------------------------------------------------------------


Bueno, pues esta es la tablatura de 'manolo' de los mojinos escozios, creo que la he sacado muy 
muy parecida, si no igualita. Espero que la disfruteis, no es muy dificil, acordaos que para que
suene 'igual' a la original tocadla parando con la mano derecha la vibracion de las cuerdas 
indicadas ([) de acuerdo con la propia cancion. Lo de abajo es la misma cancion, pero por lo menos
me suena mejor, asi que os la pongo tambien. Disfrutadla (Vivan los mojinos!)


Intro
e |------------------------------------------------------------
B |------------------------------------------------------------
G |----------------------------|-------------------------------
D |---------2-2----2--0--------|-2 veces-----------------------
A |---2--5---------------2-0---|--------------2-0--------------
E |-------------------------------------------------3-2--------

Riff del Verso
 
e |-----------------------------------------------------------------------------------------
B |-----------------------------------------------------------------------------------------
G |-----------------------------------------------------------------------------------------
D |-----------------------------------------------------------------------------------------
A |--7-9-9-9 [---9-[---9-7--7-9-9-9-----12--14---7-9-9-9-[---9-[---9-7--7-9-9-9-----14--12--
E |--5-7-7-7-[-7-7-[-7-9-5--5-7-7-7-----10--12---5-7-7-7-[-7-7-[-7-9-5--5-7-7-7-----12--10--


e |---------------------------------------------------------------------------------------
B |---------------------------------------------------------------------------------------
G |---------------------------------------------------------------------------------------
D |--9-[---9-[---9-[---9-7---|-2 veces----------------------------------------------------
A |--7-[-7-7-[-7-7-[-7-7-5---|-------------7-9-9-9-[---9-[---9-7--7-9-9-9----14-12-4------
E |----------------------------------------5-7-7-7-[-7-7-[-7-7-5--5-7-7-7----12-10-2------

e |------------------------------------------------------------
B |------------------------------------------------------------
G |------------------------------------------------------------
D | -----------------------------------------------------------
A | ---4-5---4----7-9-9-9-[---9-[---9-7--7-9-9-9----4----------
E | ---2-3---2----5-7-7-7-[-7-7-[-7-9-5--5-7-7-7----2----------

Estribillo
    manolo...................................... manolo        y ella se llamaba manoloooo
e |----------------------------------------------------------------------------------------------
B |----------------------------------------------------------------------------------------------
G |----------------------------------------------------------------------------------------------
D |--------------------------9--[---9-[---9--[---9--11-----11-12---11---|-x2---------------------
A |--9--[---9-[---9--[---9---7--[-7-7-[-7-7--[-7-7---9------9-10----9---|------------------------
E |--7--[-7-7-[-7-7--[-7-7-----------------------------------------------------------------------

'solo'

e |---------------------------------------------------------------------------------------------------------------
B |---------------------------------------------------------------------------------------------------------------
G |---------------------------------------------------------------------------------------------------------------
D |---------------------------------------9--[---9-7-8-9--[---9-7--|-2 veces--------------------------------------
A |--9--[---9-7-8-9--[---9-7--|-4 veces---7--[-7-7-5-6-7--[-7-7-5--|-----------9--[---9-7-8-9--[---9-7--|-2 veces-
E |--7--[-7-7-5-6-7--[-7-7-5--|------------------------------------------------7--[-7-7-5-6-7--[-7-7-5--|---------

e |--------------------------------------------------------------------
B |--------------------------------------------------------------------
G |--------------------------------------------------------------------
D |--------------------------------------------------------------------
A |--4----4--5---12-12-12--7-8-9---7-9-9-9-[---9-[---9-7--7-9-9-9---4--
E |--2----2--3---10-10-10--5-6-7---5-7-7-7-[-7-7-[-7-9-5--5-7-7-7---2--

Estribillo
    manolo...................................... manolo        y ella se llamaba manoloooo
e |----------------------------------------------------------------------------------------------
B |----------------------------------------------------------------------------------------------
G |----------------------------------------------------------------------------------------------
D |--------------------------9--[---9-[---9--[---9--11-----11-12---11---|-2 veces----------------
A |--9--[---9-[---9--[---9---7--[-7-7-[-7-7--[-7-7---9------9-10----9---|------------------------
E |--7--[-7-7-[-7-7--[-7-7-----------------------------------------------------------------------


Es mi primera tablatura, espero que os 'suene' a algo, para cualquier duda, comentario
o correccion escribidme a: jose_rn@                         
                                                                       

Recordad, HRB lo invade todo
Suggest correction
Give kudos to tab author, rate the tab!
1 2 3 4 5
comments
print report bad tab
guest
Wanna post a correction for this tab? Suggest correction