Oops, an error
Loading. Please wait.

Sacrificio Tab

110 views 1 this week
no commentswrite comment
1 2 3 4 5
3 more votes to show rating
add to favorites
launch autoscroll
font size
0
reset
how to read this tab
guitar tuner
×
Best way to learn
"Sacrificio"
Autoscroll
slow
fast
+/-
esc
set tempo
stop
Mojinos escozios - sacrificio


Intro 3 veces
e |------------------------------------------------------------
B |------------------------------------------------------------
G |------------------------------------------------------------
D |------------------------------------------------------------
A |--7---------------------------7-----------------------------
E |----7-7-8-7-7-8-7-7-6/7/6/7-----7-7-8-7-7-8-7-3-2-----------

Riff1 2 veces

e |----------------------------------------------------------------
B |----------------------------------------------------------------
G |----------------------------------------------------------------
D |----------------------------------------------------------------
A |-----7-----5-----7-4-5-6--------7-----5-----7-3-5-4-3-----------
E |-5-5---5-5---5-5------------5-5---5-5---5-5---------------------

Riff del verso 4 veces 

    Voy a hacer un sacrificio....
e |-------------------------------------------------------------------------------------------
B |-------------------------------------------------------------------------------------------
G |-------------------------------------------------------------------------------------------
D |-------------------------------------------------------------------------------------------
A |-------------------------7---------------------------------------7-------------------------
E |-0-0-0-0-0-0-0-0-0-0-0-0---7-7-8-7-7-6-7-0-0-0-0-0-0-0-0-0-0-0-0---7-7-8-7-8-9-------------
                                                                   (no estoy seguro)
Estribillo(intro 4 veces) + riff1 2 veces 

Saaaaaaaaaaaaaaaaaaacrificioooo, (sacrifae, sacrifae)...                   
e |--------------------------------------------------------------------------------------------------------------------
B |--------------------------------------------------------------------------------------------------------------------
G |--------------------------------------------------------------------------------------------------------------------
D |--------------------------------------------------------------------------------------------------------------------
A |--7---------------------------7-----------------------------------7-----5-----7-4-5-6--------7-----5-----7-3-5-4-3--
E |----7-7-8-7-7-8-7-7-6/7/6/7-----7-7-8-7-7-8-7-3-2-------------5-5---5-5---5-5------------5-5---5-5---5-5------------

Solo(el solo se hace con dos guitarras, una, la principal que toca un 'solo', que no he sacado y otra
por detras que toca el riff del verso 4 veces)
                                                                          
e |--------------------------------------------------------------------------------
B |--------------------------------------------------------------------------------
G |--------------------------------------------------------------------------------
D |--------------------------------------------------------------------------------
A |-------------------------7---------------------------------------7--------------
E |-0-0-0-0-0-0-0-0-0-0-0-0---7-7-8-7-7-6-7-0-0-0-0-0-0-0-0-0-0-0-0---7-7-8-7-8-9--

El resto de la cancion sigue asi:

Estribillo     | intro 2 veces
Riff del verso | 4 veces
Estribillo     | intro 2 veces
Riff del verso | 4 veces
Estribillo     | intro 4 veces
Riff1          | 2 veces

sacrifae, sacrifae, sacrifae......

Y esto es todo, para cualquier duda, comentario o correccion, escribid a:jose_rn@
(por cierto, si alguien se pone y saca el solo, que me lo envie,
gracias)                                                                  
(HRB lo invade todo)
Suggest correction
Give kudos to tab author, rate the tab!
1 2 3 4 5
comments
print report bad tab
guest
You may want to rate the tab now too:
select rating
Wanna post a correction for this tab? Suggest correction