Oops, an error
Loading. Please wait.

El Fino Hilo De La Obsesión Tab

by Mole
4 views 1 this week
no commentswrite comment
1 2 3 4 5
3 more votes to show rating
add to favorites
launch autoscroll
font size
0
reset
how to read this tab
guitar tuner
Autoscroll
slow
fast
+/-
esc
set tempo
stop
Help us to improve Ultimate-Guitar.com Take our survey!
×
Espero les guste
gracias facu
Agreguen efectos

Intro:
e|--------------------------------------------------------------------|
b|--------------------------------------------------------------------|
a|--------------------------------------------------------------------| x2
d|--5-7-9-----------9-9-10-9-7-5-7-4-2-0------------------------------|
a|---------9-7--------------------------------------------------------|
e|--------------------------------------------------------------------|

Repetir Intro

Solo x2
e|--------------------------------------------------------------------|
b|--------------------------------------------------------------------|
a|--------4-4-7-9-9-12-11-7-------------------------------------------|
d|--5-5-7-------------------------------------------------------------|
a|--------------------------------------------------------------------|
e|--------------------------------------------------------------------|

e|--------------------------------------------------------------------|
b|--------------------------------------------------------------------|
a|--------4-4-7-9-9-12-14-7-------------------------------------------|
d|--5-5-7-------------------------------------------------------------|
a|--------------------------------------------------------------------|
e|--------------------------------------------------------------------|

saludos
Suggest correction
Give kudos to tab author, rate the tab!
1 2 3 4 5
comments
print report bad tab
guest
You may want to rate the tab now too:
select rating
Wanna post a correction for this tab? Suggest correction