Oops, an error
Loading. Please wait.

Agüela Bass Tab

269 views 1 this week
no commentswrite comment
1 2 3 4 5
3 more votes to show rating
add to favorites
launch autoscroll
font size
0
reset
guitar tuner
Autoscroll
slow
fast
+/-
esc
set tempo
stop
Help us to improve Ultimate-Guitar.com Take our survey!
×
Aquí una buena cancion de los Molochos espero que les guste mi version


1)Intro/ Verso
G|-------------------|
D|-------------------|
A|-----5---------5---|  X 1
E|5---------5--------|

2)
G|-----------------------|
D|-----------------------|
A|-----55-----------55---|
E|55---------55----------|

3)
G|--------------------|     |---------|
D|--------------------|     |---------|
A|-----5555------5555-| X 2 |-----555-|
E|5555------5555------|     |5555-----|

4)
G|-----------------5--|----------------------|
D|---------7-7-5-7----|----------------------|
A|--------------------|-5---5-----55-3-55-3--|  X 4
E|-5---5--------------|----------------------|

2)
G|-----------------------|
D|-----------------------|
A|-----55-----------55---|  X 2
E|55---------55----------|

5)
G|-----------------5--|-----------------|
D|---------7-7-5-7----|-----------------|
A|--------------------|-5---5---5-------| x1
E|-5---5--------------|-----------------|

6a) Coro
G|--------------------|--------------------|
D|--------------------|--------------------|
A|--------------------|---------3---5---7--|
E|-0-0----0-3-0-2-0-3-|-5-5---5---0---0----|
  6b)
  --------------------|--------------------|
  --------------------|--------------------|
  --------------------|----------3---------|
  -0-0----0-3-0-2-0-3-|-5-5----5---0-7-0-5-|
6c)
  --------------------|--------------------|
  --------------------|--------------------|
  --------------------|----------3---5---7-|
  -0-0----0-3-0-2-0-3-|-5-5----5---0---0---|
6d)
  --------------------|--------------------------|
  --------------------|--------------------------|
  --------------------|----------3p0-------------|
  -0-0----0-3-0-2-0-3-|-5-5----5-----7p0-5p0-3p0-|

7)Verso
G|------------------------|--------------------------|
D|------------------------|--------------------------|
A|-------3----3-5---5-7-7-|-------3---3--------------|
E|-5---5------------------|-5---5-------5-3---3--0-3-|

4)
G|-----------------5--|----------------------|
D|---------7-7-5-7----|----------------------|
A|--------------------|-5---5-----55-3-55-3--|     x3
E|-5---5--------------|----------------------
(nada)


8a)
G|-----------------5--|-------------------|
D|--------------------|-------------------| x3
A|--------------------|-5---5---55-3------|
E|-5---5--------------|-------------------|
8b)
  -----------------5--|-------------------|
  --------------------|-------------------|
  --------------------|-5---5---5---------|x1
  -5---5--------------|-------------------|

4)
G|-----------------5--|----------------------|
D|---------7-7-5-7----|----------------------|
A|--------------------|-5---5-----55-3-55-3--|     x2
E|-5---5--------------|----------------------|

6a) Coro
G|--------------------|--------------------|
D|--------------------|--------------------|
A|--------------------|---------3---5---7--|
E|-0-0----0-3-0-2-0-3-|-5-5---5---0---0----|
  6b)
  --------------------|--------------------|
  --------------------|--------------------|
  --------------------|----------3---------|
  -0-0----0-3-0-2-0-3-|-5-5----5---0-7-0-5-|
6c)
  --------------------|--------------------|
  --------------------|--------------------|
  --------------------|----------3---5---7-|
  -0-0----0-3-0-2-0-3-|-5-5----5---0---0---|
6d)
  --------------------|----------|
  --------------------|----------|
  --------------------|----------|
  -0-0----0-3-0-2-0-3-|-5-5----5-|
(nada)

9)
G|---------------------5-----|------------------777-5-------|
D|--------7---------7------7-|--------7---------------5-7-8-|
A|------7---7--5-------------|------7---7--5----------------|x1
E|-5-------------------------|-5----------------------------|

4)
G|-----------------5--|----------------------|
D|---------7-7-5-7----|----------------------|
A|--------------------|-5---5-----55-3-55-3--|     x5
E|-5---5--------------|----------------------|

6a) Coro
G|--------------------|--------------------|--------
D|--------------------|--------------------|        |
A|--------------------|---------3---5---7--|        |
E|-0-0----0-3-0-2-0-3-|-5-5---5---0---0----|        |
  6b)                                                 x4
  --------------------|--------------------|        |
  --------------------|--------------------|        |
  --------------------|----------3---------|        |
  -0-0----0-3-0-2-0-3-|-5-5----5---0-7-0-5-|--------

E|-0---0---|
Como le podre pagar.
Suggest correction
Give kudos to tab author, rate the tab!
1 2 3 4 5
comments
print report bad tab
guest
You may want to rate the tab now too:
select rating
Wanna post a correction for this tab? Suggest correction