Oops, an error
Loading. Please wait.

Porque No Te Haces Para Alla, Al Más Alla Bass

version 2
version 2

Whole song

by Molotov
76 views 1 this week
no commentswrite comment
1 2 3 4 5
3 more votes to show rating
add to favorites
launch autoscroll
font size
0
reset
guitar tuner
×
Best way to learn
"Porque No Te Haces Para Alla, Al Más Alla"
Autoscroll
slow
fast
+/-
esc
set tempo
stop
Porque no te haces para alla... al mas alla?
    Molotov/Donde jugaran las niñas?

por Molodaav@


Verso1  (los 2 2BAJOS)
G|-------3---3---5-----(15x)
D|-----2---2---3-------
A|---4-----------------
E|---------------------


Coro 1      (BAJO PACO)                (BAJO HUIDOS)
Porque no te haces para alla al mas allaa porque no te haces...
G|------------------------------ G|----------------------------
D|------------------------------ D|----------------------------
A|-55555555--33333333--11111/3-- A|----------------------------
E|------------------------------ E|-5555555--3333333-5555-2/4--
  (adondeeee???) al mas alla
G|----------------------
D|-------2--------------
A|-2-3-4--3-------------
E|----------3-4-2-------

---------------------------------------------------


 Verso2  (SOLO EL BAJO DEL HUIDOS)
G|-------3---3---5-----(5x)
D|-----2---2---3-------
A|---4-----------------
E|---------------------
   por que no te cortas las venas...
G|-------------4-----(4x)
D|-----3-4---3-------
A|---4-----4---------
E|-------------------

G|---------------------(4x)
D|---------------------
A|--44-4---------------
E|----------6-77----677---


  X Coro3
Deverias de tener de tener un accidente....
G|-------3---3---5-----(9x)
D|-----2---2---3-------
A|---4-----------------
E|---------------------
   mal rayo que parta        puta ma lagradecida
G|-------------4-----(3x) G|-------------------
D|-----3-4---3-------     D|-------------------
A|---4-----4---------     A|---4---------------
E|-------------------     E|-------------------


Coro 4 (SE REPITE 2 VECES)                  (BAJO2 HUIDOS)
Porque no te haces para alla al mas allaa porque no te haces...
G|------------------------------ G|----------------------------
D|------------------------------ D|----------------------------
A|-55555555--33333333--11111/3-- A|----------------------------
E|------------------------------ E|-5555555--3333333-5555-2/4--
      (Paco)                            (Huidos)
 (adondeeee???) al mas alla
G|----------------------
D|-------2--------------
A|-2-3-4--3-------------
E|----------3-4-2-------


Verso 3  (  B  A  J  O   D  E    P  A  C  O  )       (BAJO HUIDOS)
G|------------------(7x)G|--------------(1x)  G|--------------(8x)
D|------------------    D|---------------     D|--------------
A|---4/6------------    A|--2/4----------     A|----2~/0------
E|------------------    E|---------------     E|--------------


se tocan al mismo tiempo los 2 bajos

                         (BAJO PACO)
G|-------3---3---5-----(10X)       G|---(1x)
D|-----2---2---3-------            D|---
A|---4-----------------            A|-4-
E|---------------------            E|---
                        (BAJO HUIDOS)
G|---------16----16----17-(7x)    G|-------3---3---5-----(3X)
D|------15----15----16----        D|-----2---2---3-------
A|---16-------------------        A|---4-----------------
E|------------------------        E|---------------------


Coro 5
Porque no te haces para alla al mas allaa porque no te haces...
G|------------------------------ G|----------------------------
D|------------------------------ D|----------------------------
A|-55555555--33333333--11111/3-- A|----------------------------
E|------------------------------ E|-5555555--3333333-5555-2/4--
     (adondeeee???) al mas alla
G|---------------------
D|-------2--------------
A|-2-3-4--3-------------
E|----------3-4-2-------


un saludo para el jhos ke no saven tokar

Dudas o sugerencia a

Molodaav@

este tab no esta 100% correcto
pero esta mejor ke el ke estaba antes
Suggest correction
Give kudos to tab author, rate the tab!
1 2 3 4 5
comments
print report bad tab
guest
You may want to rate the tab now too:
select rating
Wanna post a correction for this tab? Suggest correction