Oops, an error
Loading. Please wait.

Ya Te Velé Bass

by Molotov
37 views 1 this week
no commentswrite comment
1 2 3 4 5
3 more votes to show rating
add to favorites
×
Save as Personal and add changes to this tab that will be seen only by you. Learn more ›
×
You can save this tab as Personal to edit and correct it or add notes. All changes will be seen only by you. Learn more »
save as personal
new!
launch autoscroll
font size
0
reset
guitar tuner
Autoscroll
slow
fast
+/-
esc
set tempo
stop
Pues esta rolita esta sencilla va ligeramente difrente a la guitarra
creo que esta bastante clara pero si hay alguna duda pues
contactenme a tookbssplyr@

Intro.

G|-----------------------------------|
D|-----------------------------------|
A|-----------------------------------|
E|-55--33--55--33--11--00--5~--------|

G|-----------------------------------|
D|---7-----7-----7-----5h7-----------| (X3)
A|-------------------7---------------|
E|-5---5-5---5-5---5-----------------|

G|-----------------------------------|
D|---7-----7-----7-------------------|
A|-------------------7-5-3-2---------|
E|-5---5-5---5-5---5-----------------|

Versos

G|-----------------------------------|
D|---7-----7-----7-----5h7-----------| (X3)
A|-------------------7---------------|
E|-5---5-5---5-5---5-----------------|

G|-----------------------------------|
D|---7-----7-----7-------------------|
A|-------------------7-5-3-2---------|
E|-5---5-5---5-5---5-----------------|

G|-----------------------------------|
D|---7-----7-----7-----5h7-----------| (X3)
A|-------------------7---------------|
E|-5---5-5---5-5---5-----------------|

Coro

G|--------------------------------------------------|
D|--------------------------------------------------|
A|-3-5-6-------------3~-3-5-6-------------2~~-------|
E|-------4-3-1-4-3-3~---------4-3-1-4-3-3~---0~~-5--|

Esta es una pequeña figurilla en lo que esta el inter de voz

G|-----------------------------------|
D|-7-5-------------------------------|
A|-----7-5---------------------------|
E|---------8-7-5---------------------|

Verso

G|-----------------------------------|
D|---7-----7-----7-----5h7-----------| (X4)
A|-------------------7---------------|
E|-5---5-5---5-5---5-----------------|

Coro

G|--------------------------------------------------|
D|--------------------------------------------------|
A|-3-5-6-------------3~-3-5-6-------------2~~-------|
E|-------4-3-1-4-3-3~---------4-3-1-4-3-3~---0~~----|

Esta es la parte del solo de gitarra

G|-----------------------------------|
D|-----------------------------------| (X2)
A|-----------------------------------|
E|-55--33--55--33--11--00--5~--------|

G|-------------------------------------|
D|-------------------------------------|
A|------------------------7-5-3-2-0-5~~|
E|-55--33--55--33--11--00--------------|

G|--------------------------------------------------|
D|--------------------------------------------------|
A|-3-5-6-------------3~-3-5-6-------------2~~-------|
E|-------4-3-1-4-3-3~---------4-3-1-4-3-3~---0~~----|

G|-----------------------------------|
D|-----------------------------------|
A|-----------------------------------|
E|-5~~~~-3~~~~-1~~~~-0~~~~-55-3-5----|

pues asi me funciona bien cuando la toco espero que les funcione
igual saludos banda rockera.

Atte. tUKiTo
Suggest correction
Give kudos to tab author, rate the tab!
1 2 3 4 5
comments
print report bad tab
guest
Wanna post a correction for this tab? Suggest correction