Oops, an error
Loading. Please wait.

Siempre Te Busqué Tab

227 views 3 this week
no commentswrite comment
1 2 3 4 5
3 more votes to show rating
add to favorites
launch autoscroll
font size
0
reset
how to read this tab
guitar tuner
×
Best way to learn
"Siempre Te Busqué"
Autoscroll
slow
fast
+/-
esc
set tempo
stop
woooola ke onda sho  soi julian i pues esta es mi primera
transcripcion en la cuerda es una cancion bn pro
se la dediko a una chavita mus especial
i ke kiero mucho
aaa i tmbn a mi primo zuriel pa ke vea ke si la sake i ke se la
aprenda juju bno psse las dejo aki sta este....
ke muera el regaeton (si eso esta bn jaja)chaoo


Arpegio 1 (a1)

e -------------0-------------------------------------------
b ---------------2-----------------------------------------
g ------4----2----------1------2---------------------------
d ----6----2----------3------4---4-------------------------
a --7---------------4------4-------------------------------
e ---------------------------------------------------------

Arpegio 2 (a2)
e ---------------0-----------------------------------------
b -------------2------------------------------------------
g ------4----2----------1------2---------------------------
d ----6----2----------3------4---4-------------------------
a --7---------------4------4-------------------------------
e ---------------------------------------------------------

Arpegio 3 (a3)
e -------------------------------------------------------5-
b -----------------7-------------7---------------7-------7-
g ------1------6-----6-------6-------6-------6-----6-----6-
d ----2------7---7-----7---7---7---7---7---7---7-----7---7-
a --2------5-------------5---------------5---------------5-
e ---------------------------------------------------------

arpegio 4 (a4)
    A        G#m     F#m      E
e --0--------4-------2--------0----------------------------
b ----2---2----4-------2---2----0--------------------------
g ------2--------4-------2--------1------------------------
d ---------------------------------------------------------
a --0------------------------------------------------------
e -----------4-------2--------0----------------------------

guitarra electrica
e ---------------------------------------------------------
b ---------------------------------------------------------
g -9s2-------------------------------------------------
d -9s2-------------------------------------------------
a -7s0-------------------------------------------------
e ---------------------------------------------------------


SIEMPRE TE BUSQUE

Intro: a1x2
       A2x1
       A1xi
A1
Dicen que todo empezó, con una gran explosión

A1
La oscuridad dio a luz nació, una constelación

A2
Yo era polvo estelar, viajaba sin disección

A1
Buscaba algo que buscar, en medio de esta gran

A3
confusión Wooooo wooooo


A1
Después de mucho viajar, por las entrañas de dios

A1
Sentí ganas de parar, sentí ganas de ser dos

A2
Fui un protozoario en el mar, fui un dinosaurio feroz

A1
Fui un mono sin amaestrar que un dia supo

  A3
escuchar su voz wooooo


A1
En muchos sueños soñé, en muchos cuerpos viví

A1
Mil veces me enamore, otras mil veces morí

A2
Tan pronto escucho tu voz, tu voz que se hace canción

A1                                      A3
Y puedo ver que eres tu, lo que buscaba tu corazón
Wuuuuuuuu


Bm         D                   F#m    E
El tiempo paso, todo transformooooooo wooohwoohwo

Bm           D                       F#m   E
Y sin saber porque yo siempre te busqueeee wowooo

Bm         D                F#m     E
El tiempo pasó, todo transformooo woohwoohwo

Bm            D                     F#m   E
Y sin saber porque yo siempre te busqueeee woooo


PUENTE: a4X2

A4
El día que te conocí

A4
Sentí una gran explosión

A4
En  mil pedazos volé

A4                   A3
Dentro de mi habitación


Woooooooooooooooooo


Pá-pá Pá-pá Pá-pá Pá-pá
Entra guitarraelectrica
Pá-pá Pá-pá Pá-pá Pá-pá


A1
Nos amaremos después, la vida nos matara

A1
Seremos polvo otra vez la tierra nos beberá

A2
Muy lejos de este lugar tal vez te vuelva a encontrar

A1                                       [ch]A posición del A3[/ch]
Nada será como es tal ves seamos polvo estelaaaar uuuuuuu


Bm         D                   F#m    E
El tiempo paso, todo transformooooooo wooohwoohwo

Bm           D                       F#m   E
Y sin saber porque yo siempre te busqueeee wowooo

Bm         D                 F#m   E
El tiempo pasó, todo transformooo woohwoohwo

Bm            D                     F#m   E
Y sin saber porque yo siempre te busqueeee woooo


G electrica acompaña
A C#m F#m E A C#m F#m E
Pá-pá Pá-pá Pá-pá Pá-pá
A C#m F#m E A C#m F#m E
Pá-pá Pá-pá Pá-pá Pá-pá

Termina con a3

califiken .-. ¨(con diez ¬¬)
Suggest correction
Give kudos to tab author, rate the tab!
1 2 3 4 5
comments
print report bad tab
guest
You may want to rate the tab now too:
select rating
Wanna post a correction for this tab? Suggest correction