Oops, an error
Loading. Please wait.

Siempre Te Busqué Chords

91 views 1 this week
no commentswrite comment
1 2 3 4 5
3 more votes to show rating
add to favorites
×
Save as Personal and add changes to this tab that will be seen only by you. Learn more ›
×
You can save this tab as Personal to edit and correct it or add notes. All changes will be seen only by you. Learn more »
save as personal
new!
launch autoscroll
font size
0
reset
transpose
0
reset
display chords
guitar tuner
Autoscroll
slow
fast
+/-
esc
set tempo
stop
Strumming
There is no strumming pattern for this song yet. and get +5 IQ
Bueno pues que decir esta rola me llego y trate de subir la mejor
transcripcion posible ya que cheque las dos que hay y aunque una
de ellas tiene muy buenas calificaciones note que tenia muchos errores
asi que contribui, aqui se las dejo escuchenla muy bien y me dicen
cualquier cosa que detecten rara por favor.

A dedico A Gina.
Siendo las 03:54 am del 12-01-2009.
Espero le guste como regalo de cumpleaños.
Bueno un regalito no material. Jejeje

DISFRUTENLA!!!

INTRO:
e------------0----------------------
B--------------2--------------------
G-----4----2-----------1------2-----
D---6----2-----------3------4---4---
A-7----------------4------4---------
E-----------------------------------

e------------0----------------------
B--------------2--------------------
G-----4----2-----------1------2-----
D---6----2-----------3------4---4---
A-7----------------4------4---------
E-----------------------------------

e--------------0--------------------
B------------2----------------------
G-----4----2-----------1------2-----
D---6----2-----------3------4---4---
A-7----------------4------4---------
E-----------------------------------

e------------0----------------------
B--------------2--------------------
G-----4----2-----------1------2-----
D---6----2-----------3------4---4---
A-7----------------4------4---------
E-----------------------------------

ARPEGIO 1

e------------0---------------------
B--------------2-------------------
G-----4----2-----------1------2----
D---6----2-----------3------4---4--
A-7----------------4------4--------
E----------------------------------

ARPEGIO 2

e--------------0--------------------
B------------2----------------------
G-----4----2-----------1------2-----
D---6----2-----------3------4---4---
A-7----------------4------4---------
E-----------------------------------

ARPEGIO 3

e-------------0-------------------------------------------------------5-
B--------------2---------7---------------7---------------7-----------7--
G------4----2--------6-----6---------6---- 6---------6-----6--------6---
D----6----2--------7---7-----7-----7-- 7-----7-----7---7-----7-----7----
A--7-------------5---------------5---------------5----------------5-----
E-----------------------------------------------------------------------

ARPEGIO 1
Dicen que todo empezó con una gran explosión
ARPEGIO 1
La oscuridad dio a luz nació una constelación
ARPEGIO 2
Yo era polvo estelar viajaba sin dirección
ARPEGIO 1                                ARPEGIO 3
buscaba algo que buscar en medio de esta gran confusión

ARPEGIO 1
Después de mucho viajar por las entrañas de Dios
ARPEGIO 1
sentí ganas de parar sentí ganas de ser dos
ARPEGIO 2
Fui un protozoario en el mar fui un dinosaurio feroz
ARPEGIO 1                                 ARPEGIO 3
fui un mono sin amaestrar que un día supo escuchar su Voz

ARPEGIO 1
En muchos sueños soñé en muchos cuerpos viví
ARPEGIO 1
mil veces me enamoré otras mil veces morí
ARPEGIO 2
De pronto escucho tu voz tu vos que se hace canción
ARPEGIO 1                              ARPEGIO 3    A
Y puedo ver que eres tú lo que buscaba mi corazón

CORO:
Bm          D              F#m    E
El tiempo pasó todo transformó    Ooooh
Bm              D                 F#m   E
y sin saber por qué siempre te busqué   Oooohh


ARPEGIO 4

e---0---0----4-----2---2----------
B----2---------2----2----2--------
G-----2---------2----2----2-------
D---------------------------------
A---------------------------------
E---------------------------------

ESTRIBILLO: (ENTRA ARPEGIO 4)

El día que te conocí sentí una gran explosión

en mil pedazos volé dentro de mi habitación

       A                      C#m
Nos amaremos, después la vida nos matará
  F#m                           E
seremos nada otra vez la tierra nos beberá
             A                     C#m
Muy lejos de este lugar tal vez te vuelva a encontrar
      F#m                 E                D#º  A
nada será como es tal vez seamos polvo estelar

CORO:
Bm          D              F#m    E
El tiempo pasó todo transformó    Ooooh
Bm              D                 F#m   E
y sin saber por qué siempre te busqué   Oooohh

P.D. Espero entiendas que es mejor tratarte como una amiga a perder
completamente tu amistad.

ATTE: vL@D0
Suggest correction
Give kudos to tab author, rate the tab!
1 2 3 4 5
comments
print report bad tab
guest
Wanna post a correction for this tab? Suggest correction