Oops, an error
Loading. Please wait.

Arrastrado Bass Tab

5 views 1 this week
no commentswrite comment
1 2 3 4 5
3 more votes to show rating
add to favorites
launch autoscroll
font size
0
reset
guitar tuner
×
Best way to learn
"Arrastrado"
Autoscroll
slow
fast
+/-
esc
set tempo
stop
intro
G:|--------------------------------------------------------------
D:|- ------------------------------------------------------------
A:|-----------------------2(X9)3(8)5-7-8-------------------------
E:|-3-3-3-3-3-3-3-3-3-3-5----------------------------------------

G:|--------------------------------------------------------------
D:|- ------------------------------------------------------------
A:|-----------------------2(X9)3(8)5-7-8-------------------------
E:|-3-3-3-3-3-3-3-3-3-3-5----------------------------------------

G:|--------------------------------------------------------------
D:|- ------------------------------------------------------------
A:|-----------------------2(X9)3(8)5-7-8-------------------------
E:|-3-3-3-3-3-3-3-3-3-3-5----------------------------------------

AL FINAL SOLO MARCA LOS TONOS UNA VEZ. SUERTE. DEDICADA AL TIO
Suggest correction
Give kudos to tab author, rate the tab!
1 2 3 4 5
comments
print report bad tab
guest
You may want to rate the tab now too:
select rating
Wanna post a correction for this tab? Suggest correction