Oops, an error
Loading. Please wait.

No Volveré Bass Tab

1 view 1 this week
no commentswrite comment
1 2 3 4 5
3 more votes to show rating
add to favorites
launch autoscroll
font size
0
reset
guitar tuner
×
Best way to learn
"No Volveré"
Autoscroll
slow
fast
+/-
esc
set tempo
stop
intro
G:|---------------------------------------------------------
D:|- -------------------------------------------------------
A:|-3--5--3--5----------------------------------------------
E:|---------------------------------------------------------


ESTROFAS
G:|----------------------------------------------------------
D:|- --------------------------------------------------------
A:|--3-3-3-3-3-3--5-5-5-5-5-(2)------------5-5-5-5--3-3-3-3--
E:|--------------------------------1-1-1-1-------------------


CORO
G:|----------------------------------------------------------
D:|- --------------------------------------------------------
A:|--3-3-3-------1-1-1-1-------3-3-3-------------------------
E:|--------1-1-1---------1-1-1-------------------------------


SUERTE...
Suggest correction
Give kudos to tab author, rate the tab!
1 2 3 4 5
comments
print report bad tab
guest
You may want to rate the tab now too:
select rating
Wanna post a correction for this tab? Suggest correction