Oops, an error
Loading. Please wait.

Enséñame Bass Tab

11 views 1 this week
no commentswrite comment
1 2 3 4 5
3 more votes to show rating
add to favorites
launch autoscroll
font size
0
reset
guitar tuner
Autoscroll
slow
fast
+/-
esc
set tempo
stop
Help us to improve Ultimate-Guitar.com Take our survey!
×
intro:
G----------------:
D----------------:
A-3---3-3--1-3-1-:	x4 y luego pa el segundo riff
E----3-----------:
B----------------:


G---------------:
D---------------:
A----3/13/------:	x4
E---------------:
B---------------:

son dos tipos de riff. ya terminando estos entra 

Verso: 
G--------------------------------------------------------:
D--------------------------------------------------------:
A-------------------------------3--3-3-3---3-3--3-3-3-3--:	 x4 y luego
E-1--1-1-1----1-1----1-1-1----1--------------------------:
B--------------------------------------------------------:


G-----------------:
D-----------------:
A--------3--------:
E---1---------3---:
B-----------------:


Coro:  
enseñame....
G---------------------------------------------------------:
D---------------------------------------------------------:
A-3--3-3-3--3----------------5--5-5-5--5------------------:	
E---------------3--3-3-3--3---------------5--5-5-5--5-----:
B---------------------------------------------------------:

luego entra la variacion donde esta el solo.
puede entrar cualquiera de las dos.
G---------------------------------------------------------:
D---------------------------------------------------------:
A-3--3-3-3--3----------------0--0-0-0--0------------------:	
E---------------3--3-3-3--3---------------1--1-1-1--1-----:
B---------------------------------------------------------:
en la parte del solo toca Verso. x2 y la segunda vez
te quedas en F para que entre el verso
se repite Verso
se repite Coro
se repite la intro con esta variacion:


intro:
G---------------:
D---------------:
A-3---3-3-1-----:	x4 y luego pa el segundo riff
E----3----------:
B---------------:

G----------------:
D----------------:
A-3---3-3--1-3-1-:	
E----3-----------:
B----------------:

este segundo riff se repite hasta que termina la cancion.


Ahi espero que les sirva, es lo mas fiel al bajo real.

sale..
Saludos a todos, si quieren escribir ahi esta mi mail
GuaLo
Suggest correction
Give kudos to tab author, rate the tab!
1 2 3 4 5
comments
print report bad tab
guest
You may want to rate the tab now too:
select rating
Wanna post a correction for this tab? Suggest correction